ISO-10303-21;
HEADER;
/* Generated by software containing ST-Developer
 * from STEP Tools, Inc. (www.steptools.com) 
 */

FILE_DESCRIPTION(
/* description */ (''),
/* implementation_level */ '2;1');

FILE_NAME(
/* name */ 'H:\\cad\\neutral\\3d\\70597\\sso_1-12_8_es.stp',
/* time_stamp */ '2017-03-07T14:44:23+01:00',
/* author */ ('hamoud'),
/* organization */ (''),
/* preprocessor_version */ 'ST-DEVELOPER v15.6',
/* originating_system */ 'Autodesk Inventor LT ',
/* authorisation */ '');

FILE_SCHEMA (('AUTOMOTIVE_DESIGN { 1 0 10303 214 3 1 1 }'));
ENDSEC;

DATA;
#10=MECHANICAL_DESIGN_GEOMETRIC_PRESENTATION_REPRESENTATION('',(#16),#594);
#11=DIMENSIONAL_EXPONENTS(0.,0.,0.,0.,0.,0.,0.);
#12=(
CONVERSION_BASED_UNIT('degree',#13)
NAMED_UNIT(#11)
PLANE_ANGLE_UNIT()
);
#13=PLANE_ANGLE_MEASURE_WITH_UNIT(PLANE_ANGLE_MEASURE(0.01745329252),#597);
#14=SHAPE_REPRESENTATION_RELATIONSHIP('SRR','None',#600,#15);
#15=ADVANCED_BREP_SHAPE_REPRESENTATION($,(#17),#593);
#16=STYLED_ITEM('',(#610),#17);
#17=MANIFOLD_SOLID_BREP('1',#346);
#18=FACE_BOUND('',#63,.T.);
#19=FACE_BOUND('',#65,.T.);
#20=PLANE('',#357);
#21=PLANE('',#361);
#22=PLANE('',#365);
#23=PLANE('',#372);
#24=PLANE('',#376);
#25=PLANE('',#380);
#26=PLANE('',#384);
#27=PLANE('',#385);
#28=FACE_OUTER_BOUND('',#46,.T.);
#29=FACE_OUTER_BOUND('',#47,.T.);
#30=FACE_OUTER_BOUND('',#48,.T.);
#31=FACE_OUTER_BOUND('',#49,.T.);
#32=FACE_OUTER_BOUND('',#50,.T.);
#33=FACE_OUTER_BOUND('',#51,.T.);
#34=FACE_OUTER_BOUND('',#52,.T.);
#35=FACE_OUTER_BOUND('',#53,.T.);
#36=FACE_OUTER_BOUND('',#54,.T.);
#37=FACE_OUTER_BOUND('',#55,.T.);
#38=FACE_OUTER_BOUND('',#56,.T.);
#39=FACE_OUTER_BOUND('',#57,.T.);
#40=FACE_OUTER_BOUND('',#58,.T.);
#41=FACE_OUTER_BOUND('',#59,.T.);
#42=FACE_OUTER_BOUND('',#60,.T.);
#43=FACE_OUTER_BOUND('',#61,.T.);
#44=FACE_OUTER_BOUND('',#62,.T.);
#45=FACE_OUTER_BOUND('',#64,.T.);
#46=EDGE_LOOP('',(#222,#223,#224,#225));
#47=EDGE_LOOP('',(#226,#227,#228,#229));
#48=EDGE_LOOP('',(#230,#231,#232,#233));
#49=EDGE_LOOP('',(#234,#235,#236,#237));
#50=EDGE_LOOP('',(#238,#239,#240,#241));
#51=EDGE_LOOP('',(#242,#243,#244,#245));
#52=EDGE_LOOP('',(#246,#247,#248,#249));
#53=EDGE_LOOP('',(#250,#251,#252,#253));
#54=EDGE_LOOP('',(#254,#255,#256,#257));
#55=EDGE_LOOP('',(#258,#259,#260,#261));
#56=EDGE_LOOP('',(#262,#263,#264,#265));
#57=EDGE_LOOP('',(#266,#267,#268,#269));
#58=EDGE_LOOP('',(#270,#271,#272,#273));
#59=EDGE_LOOP('',(#274,#275,#276,#277));
#60=EDGE_LOOP('',(#278,#279,#280,#281));
#61=EDGE_LOOP('',(#282,#283,#284,#285));
#62=EDGE_LOOP('',(#286,#287,#288,#289,#290,#291,#292,#293));
#63=EDGE_LOOP('',(#294,#295,#296,#297,#298,#299,#300,#301));
#64=EDGE_LOOP('',(#302,#303,#304,#305,#306,#307,#308,#309));
#65=EDGE_LOOP('',(#310,#311,#312,#313,#314,#315,#316,#317));
#66=LINE('',#498,#94);
#67=LINE('',#501,#95);
#68=LINE('',#507,#96);
#69=LINE('',#510,#97);
#70=LINE('',#515,#98);
#71=LINE('',#519,#99);
#72=LINE('',#521,#100);
#73=LINE('',#522,#101);
#74=LINE('',#527,#102);
#75=LINE('',#531,#103);
#76=LINE('',#533,#104);
#77=LINE('',#534,#105);
#78=LINE('',#539,#106);
#79=LINE('',#543,#107);
#80=LINE('',#545,#108);
#81=LINE('',#546,#109);
#82=LINE('',#552,#110);
#83=LINE('',#557,#111);
#84=LINE('',#561,#112);
#85=LINE('',#563,#113);
#86=LINE('',#564,#114);
#87=LINE('',#569,#115);
#88=LINE('',#573,#116);
#89=LINE('',#575,#117);
#90=LINE('',#576,#118);
#91=LINE('',#581,#119);
#92=LINE('',#584,#120);
#93=LINE('',#585,#121);
#94=VECTOR('',#392,6.);
#95=VECTOR('',#395,6.);
#96=VECTOR('',#400,6.);
#97=VECTOR('',#403,6.);
#98=VECTOR('',#408,6.);
#99=VECTOR('',#413,2.7421538481074);
#100=VECTOR('',#414,6.);
#101=VECTOR('',#415,2.7421538481074);
#102=VECTOR('',#420,6.);
#103=VECTOR('',#425,5.9);
#104=VECTOR('',#426,6.);
#105=VECTOR('',#427,5.9);
#106=VECTOR('',#432,6.);
#107=VECTOR('',#437,2.7421538481074);
#108=VECTOR('',#438,6.);
#109=VECTOR('',#439,2.7421538481074);
#110=VECTOR('',#446,6.);
#111=VECTOR('',#451,6.);
#112=VECTOR('',#456,2.7421538481074);
#113=VECTOR('',#457,6.);
#114=VECTOR('',#458,2.7421538481074);
#115=VECTOR('',#463,6.);
#116=VECTOR('',#468,5.9);
#117=VECTOR('',#469,6.);
#118=VECTOR('',#470,5.9);
#119=VECTOR('',#475,6.);
#120=VECTOR('',#480,2.7421538481074);
#121=VECTOR('',#481,2.7421538481074);
#122=CIRCLE('',#349,7.1);
#123=CIRCLE('',#350,7.1);
#124=CIRCLE('',#352,6.4);
#125=CIRCLE('',#353,6.4);
#126=CIRCLE('',#355,1.);
#127=CIRCLE('',#356,1.);
#128=CIRCLE('',#359,0.3);
#129=CIRCLE('',#360,0.3);
#130=CIRCLE('',#363,0.3);
#131=CIRCLE('',#364,0.3);
#132=CIRCLE('',#367,0.3);
#133=CIRCLE('',#368,0.3);
#134=CIRCLE('',#370,0.3);
#135=CIRCLE('',#371,0.3);
#136=CIRCLE('',#374,1.);
#137=CIRCLE('',#375,1.);
#138=CIRCLE('',#378,0.999999999999999);
#139=CIRCLE('',#379,0.999999999999999);
#140=CIRCLE('',#382,1.);
#141=CIRCLE('',#383,1.);
#142=VERTEX_POINT('',#494);
#143=VERTEX_POINT('',#495);
#144=VERTEX_POINT('',#497);
#145=VERTEX_POINT('',#499);
#146=VERTEX_POINT('',#503);
#147=VERTEX_POINT('',#504);
#148=VERTEX_POINT('',#506);
#149=VERTEX_POINT('',#508);
#150=VERTEX_POINT('',#512);
#151=VERTEX_POINT('',#514);
#152=VERTEX_POINT('',#518);
#153=VERTEX_POINT('',#520);
#154=VERTEX_POINT('',#524);
#155=VERTEX_POINT('',#526);
#156=VERTEX_POINT('',#530);
#157=VERTEX_POINT('',#532);
#158=VERTEX_POINT('',#536);
#159=VERTEX_POINT('',#538);
#160=VERTEX_POINT('',#542);
#161=VERTEX_POINT('',#544);
#162=VERTEX_POINT('',#548);
#163=VERTEX_POINT('',#550);
#164=VERTEX_POINT('',#554);
#165=VERTEX_POINT('',#556);
#166=VERTEX_POINT('',#560);
#167=VERTEX_POINT('',#562);
#168=VERTEX_POINT('',#566);
#169=VERTEX_POINT('',#568);
#170=VERTEX_POINT('',#572);
#171=VERTEX_POINT('',#574);
#172=VERTEX_POINT('',#578);
#173=VERTEX_POINT('',#580);
#174=EDGE_CURVE('',#142,#143,#122,.T.);
#175=EDGE_CURVE('',#142,#144,#66,.T.);
#176=EDGE_CURVE('',#144,#145,#123,.T.);
#177=EDGE_CURVE('',#143,#145,#67,.T.);
#178=EDGE_CURVE('',#146,#147,#124,.T.);
#179=EDGE_CURVE('',#147,#148,#68,.T.);
#180=EDGE_CURVE('',#149,#148,#125,.T.);
#181=EDGE_CURVE('',#146,#149,#69,.T.);
#182=EDGE_CURVE('',#149,#150,#126,.T.);
#183=EDGE_CURVE('',#151,#150,#70,.T.);
#184=EDGE_CURVE('',#146,#151,#127,.T.);
#185=EDGE_CURVE('',#152,#150,#71,.T.);
#186=EDGE_CURVE('',#153,#152,#72,.T.);
#187=EDGE_CURVE('',#153,#151,#73,.T.);
#188=EDGE_CURVE('',#154,#152,#128,.T.);
#189=EDGE_CURVE('',#155,#154,#74,.T.);
#190=EDGE_CURVE('',#155,#153,#129,.T.);
#191=EDGE_CURVE('',#156,#154,#75,.T.);
#192=EDGE_CURVE('',#157,#156,#76,.T.);
#193=EDGE_CURVE('',#157,#155,#77,.T.);
#194=EDGE_CURVE('',#156,#158,#130,.T.);
#195=EDGE_CURVE('',#159,#158,#78,.T.);
#196=EDGE_CURVE('',#157,#159,#131,.T.);
#197=EDGE_CURVE('',#158,#160,#79,.T.);
#198=EDGE_CURVE('',#161,#160,#80,.T.);
#199=EDGE_CURVE('',#159,#161,#81,.T.);
#200=EDGE_CURVE('',#144,#162,#132,.T.);
#201=EDGE_CURVE('',#142,#163,#133,.T.);
#202=EDGE_CURVE('',#163,#162,#82,.T.);
#203=EDGE_CURVE('',#145,#164,#134,.T.);
#204=EDGE_CURVE('',#165,#164,#83,.T.);
#205=EDGE_CURVE('',#143,#165,#135,.T.);
#206=EDGE_CURVE('',#166,#164,#84,.T.);
#207=EDGE_CURVE('',#167,#166,#85,.T.);
#208=EDGE_CURVE('',#167,#165,#86,.T.);
#209=EDGE_CURVE('',#168,#166,#136,.T.);
#210=EDGE_CURVE('',#169,#168,#87,.T.);
#211=EDGE_CURVE('',#169,#167,#137,.T.);
#212=EDGE_CURVE('',#168,#170,#88,.T.);
#213=EDGE_CURVE('',#171,#170,#89,.T.);
#214=EDGE_CURVE('',#169,#171,#90,.T.);
#215=EDGE_CURVE('',#170,#172,#138,.T.);
#216=EDGE_CURVE('',#173,#172,#91,.T.);
#217=EDGE_CURVE('',#171,#173,#139,.T.);
#218=EDGE_CURVE('',#172,#162,#92,.T.);
#219=EDGE_CURVE('',#173,#163,#93,.T.);
#220=EDGE_CURVE('',#148,#160,#140,.T.);
#221=EDGE_CURVE('',#147,#161,#141,.T.);
#222=ORIENTED_EDGE('',*,*,#174,.F.);
#223=ORIENTED_EDGE('',*,*,#175,.T.);
#224=ORIENTED_EDGE('',*,*,#176,.T.);
#225=ORIENTED_EDGE('',*,*,#177,.F.);
#226=ORIENTED_EDGE('',*,*,#178,.T.);
#227=ORIENTED_EDGE('',*,*,#179,.T.);
#228=ORIENTED_EDGE('',*,*,#180,.F.);
#229=ORIENTED_EDGE('',*,*,#181,.F.);
#230=ORIENTED_EDGE('',*,*,#182,.T.);
#231=ORIENTED_EDGE('',*,*,#183,.F.);
#232=ORIENTED_EDGE('',*,*,#184,.F.);
#233=ORIENTED_EDGE('',*,*,#181,.T.);
#234=ORIENTED_EDGE('',*,*,#185,.F.);
#235=ORIENTED_EDGE('',*,*,#186,.F.);
#236=ORIENTED_EDGE('',*,*,#187,.T.);
#237=ORIENTED_EDGE('',*,*,#183,.T.);
#238=ORIENTED_EDGE('',*,*,#188,.F.);
#239=ORIENTED_EDGE('',*,*,#189,.F.);
#240=ORIENTED_EDGE('',*,*,#190,.T.);
#241=ORIENTED_EDGE('',*,*,#186,.T.);
#242=ORIENTED_EDGE('',*,*,#191,.F.);
#243=ORIENTED_EDGE('',*,*,#192,.F.);
#244=ORIENTED_EDGE('',*,*,#193,.T.);
#245=ORIENTED_EDGE('',*,*,#189,.T.);
#246=ORIENTED_EDGE('',*,*,#194,.T.);
#247=ORIENTED_EDGE('',*,*,#195,.F.);
#248=ORIENTED_EDGE('',*,*,#196,.F.);
#249=ORIENTED_EDGE('',*,*,#192,.T.);
#250=ORIENTED_EDGE('',*,*,#197,.T.);
#251=ORIENTED_EDGE('',*,*,#198,.F.);
#252=ORIENTED_EDGE('',*,*,#199,.F.);
#253=ORIENTED_EDGE('',*,*,#195,.T.);
#254=ORIENTED_EDGE('',*,*,#200,.F.);
#255=ORIENTED_EDGE('',*,*,#175,.F.);
#256=ORIENTED_EDGE('',*,*,#201,.T.);
#257=ORIENTED_EDGE('',*,*,#202,.T.);
#258=ORIENTED_EDGE('',*,*,#203,.T.);
#259=ORIENTED_EDGE('',*,*,#204,.F.);
#260=ORIENTED_EDGE('',*,*,#205,.F.);
#261=ORIENTED_EDGE('',*,*,#177,.T.);
#262=ORIENTED_EDGE('',*,*,#206,.F.);
#263=ORIENTED_EDGE('',*,*,#207,.F.);
#264=ORIENTED_EDGE('',*,*,#208,.T.);
#265=ORIENTED_EDGE('',*,*,#204,.T.);
#266=ORIENTED_EDGE('',*,*,#209,.F.);
#267=ORIENTED_EDGE('',*,*,#210,.F.);
#268=ORIENTED_EDGE('',*,*,#211,.T.);
#269=ORIENTED_EDGE('',*,*,#207,.T.);
#270=ORIENTED_EDGE('',*,*,#212,.T.);
#271=ORIENTED_EDGE('',*,*,#213,.F.);
#272=ORIENTED_EDGE('',*,*,#214,.F.);
#273=ORIENTED_EDGE('',*,*,#210,.T.);
#274=ORIENTED_EDGE('',*,*,#215,.T.);
#275=ORIENTED_EDGE('',*,*,#216,.F.);
#276=ORIENTED_EDGE('',*,*,#217,.F.);
#277=ORIENTED_EDGE('',*,*,#213,.T.);
#278=ORIENTED_EDGE('',*,*,#218,.T.);
#279=ORIENTED_EDGE('',*,*,#202,.F.);
#280=ORIENTED_EDGE('',*,*,#219,.F.);
#281=ORIENTED_EDGE('',*,*,#216,.T.);
#282=ORIENTED_EDGE('',*,*,#220,.F.);
#283=ORIENTED_EDGE('',*,*,#179,.F.);
#284=ORIENTED_EDGE('',*,*,#221,.T.);
#285=ORIENTED_EDGE('',*,*,#198,.T.);
#286=ORIENTED_EDGE('',*,*,#201,.F.);
#287=ORIENTED_EDGE('',*,*,#174,.T.);
#288=ORIENTED_EDGE('',*,*,#205,.T.);
#289=ORIENTED_EDGE('',*,*,#208,.F.);
#290=ORIENTED_EDGE('',*,*,#211,.F.);
#291=ORIENTED_EDGE('',*,*,#214,.T.);
#292=ORIENTED_EDGE('',*,*,#217,.T.);
#293=ORIENTED_EDGE('',*,*,#219,.T.);
#294=ORIENTED_EDGE('',*,*,#178,.F.);
#295=ORIENTED_EDGE('',*,*,#184,.T.);
#296=ORIENTED_EDGE('',*,*,#187,.F.);
#297=ORIENTED_EDGE('',*,*,#190,.F.);
#298=ORIENTED_EDGE('',*,*,#193,.F.);
#299=ORIENTED_EDGE('',*,*,#196,.T.);
#300=ORIENTED_EDGE('',*,*,#199,.T.);
#301=ORIENTED_EDGE('',*,*,#221,.F.);
#302=ORIENTED_EDGE('',*,*,#200,.T.);
#303=ORIENTED_EDGE('',*,*,#218,.F.);
#304=ORIENTED_EDGE('',*,*,#215,.F.);
#305=ORIENTED_EDGE('',*,*,#212,.F.);
#306=ORIENTED_EDGE('',*,*,#209,.T.);
#307=ORIENTED_EDGE('',*,*,#206,.T.);
#308=ORIENTED_EDGE('',*,*,#203,.F.);
#309=ORIENTED_EDGE('',*,*,#176,.F.);
#310=ORIENTED_EDGE('',*,*,#180,.T.);
#311=ORIENTED_EDGE('',*,*,#220,.T.);
#312=ORIENTED_EDGE('',*,*,#197,.F.);
#313=ORIENTED_EDGE('',*,*,#194,.F.);
#314=ORIENTED_EDGE('',*,*,#191,.T.);
#315=ORIENTED_EDGE('',*,*,#188,.T.);
#316=ORIENTED_EDGE('',*,*,#185,.T.);
#317=ORIENTED_EDGE('',*,*,#182,.F.);
#318=CYLINDRICAL_SURFACE('',#348,7.1);
#319=CYLINDRICAL_SURFACE('',#351,6.4);
#320=CYLINDRICAL_SURFACE('',#354,1.);
#321=CYLINDRICAL_SURFACE('',#358,0.3);
#322=CYLINDRICAL_SURFACE('',#362,0.3);
#323=CYLINDRICAL_SURFACE('',#366,0.3);
#324=CYLINDRICAL_SURFACE('',#369,0.3);
#325=CYLINDRICAL_SURFACE('',#373,0.999999999999999);
#326=CYLINDRICAL_SURFACE('',#377,0.999999999999999);
#327=CYLINDRICAL_SURFACE('',#381,1.);
#328=ADVANCED_FACE('',(#28),#318,.T.);
#329=ADVANCED_FACE('',(#29),#319,.F.);
#330=ADVANCED_FACE('',(#30),#320,.T.);
#331=ADVANCED_FACE('',(#31),#20,.T.);
#332=ADVANCED_FACE('',(#32),#321,.F.);
#333=ADVANCED_FACE('',(#33),#21,.T.);
#334=ADVANCED_FACE('',(#34),#322,.F.);
#335=ADVANCED_FACE('',(#35),#22,.F.);
#336=ADVANCED_FACE('',(#36),#323,.F.);
#337=ADVANCED_FACE('',(#37),#324,.F.);
#338=ADVANCED_FACE('',(#38),#23,.T.);
#339=ADVANCED_FACE('',(#39),#325,.T.);
#340=ADVANCED_FACE('',(#40),#24,.F.);
#341=ADVANCED_FACE('',(#41),#326,.T.);
#342=ADVANCED_FACE('',(#42),#25,.F.);
#343=ADVANCED_FACE('',(#43),#327,.T.);
#344=ADVANCED_FACE('',(#44,#18),#26,.T.);
#345=ADVANCED_FACE('',(#45,#19),#27,.F.);
#346=CLOSED_SHELL('',(#328,#329,#330,#331,#332,#333,#334,#335,#336,#337,
#338,#339,#340,#341,#342,#343,#344,#345));
#347=AXIS2_PLACEMENT_3D('placement',#492,#386,#387);
#348=AXIS2_PLACEMENT_3D('',#493,#388,#389);
#349=AXIS2_PLACEMENT_3D('',#496,#390,#391);
#350=AXIS2_PLACEMENT_3D('',#500,#393,#394);
#351=AXIS2_PLACEMENT_3D('',#502,#396,#397);
#352=AXIS2_PLACEMENT_3D('',#505,#398,#399);
#353=AXIS2_PLACEMENT_3D('',#509,#401,#402);
#354=AXIS2_PLACEMENT_3D('',#511,#404,#405);
#355=AXIS2_PLACEMENT_3D('',#513,#406,#407);
#356=AXIS2_PLACEMENT_3D('',#516,#409,#410);
#357=AXIS2_PLACEMENT_3D('',#517,#411,#412);
#358=AXIS2_PLACEMENT_3D('',#523,#416,#417);
#359=AXIS2_PLACEMENT_3D('',#525,#418,#419);
#360=AXIS2_PLACEMENT_3D('',#528,#421,#422);
#361=AXIS2_PLACEMENT_3D('',#529,#423,#424);
#362=AXIS2_PLACEMENT_3D('',#535,#428,#429);
#363=AXIS2_PLACEMENT_3D('',#537,#430,#431);
#364=AXIS2_PLACEMENT_3D('',#540,#433,#434);
#365=AXIS2_PLACEMENT_3D('',#541,#435,#436);
#366=AXIS2_PLACEMENT_3D('',#547,#440,#441);
#367=AXIS2_PLACEMENT_3D('',#549,#442,#443);
#368=AXIS2_PLACEMENT_3D('',#551,#444,#445);
#369=AXIS2_PLACEMENT_3D('',#553,#447,#448);
#370=AXIS2_PLACEMENT_3D('',#555,#449,#450);
#371=AXIS2_PLACEMENT_3D('',#558,#452,#453);
#372=AXIS2_PLACEMENT_3D('',#559,#454,#455);
#373=AXIS2_PLACEMENT_3D('',#565,#459,#460);
#374=AXIS2_PLACEMENT_3D('',#567,#461,#462);
#375=AXIS2_PLACEMENT_3D('',#570,#464,#465);
#376=AXIS2_PLACEMENT_3D('',#571,#466,#467);
#377=AXIS2_PLACEMENT_3D('',#577,#471,#472);
#378=AXIS2_PLACEMENT_3D('',#579,#473,#474);
#379=AXIS2_PLACEMENT_3D('',#582,#476,#477);
#380=AXIS2_PLACEMENT_3D('',#583,#478,#479);
#381=AXIS2_PLACEMENT_3D('',#586,#482,#483);
#382=AXIS2_PLACEMENT_3D('',#587,#484,#485);
#383=AXIS2_PLACEMENT_3D('',#588,#486,#487);
#384=AXIS2_PLACEMENT_3D('',#589,#488,#489);
#385=AXIS2_PLACEMENT_3D('',#590,#490,#491);
#386=DIRECTION('axis',(0.,0.,1.));
#387=DIRECTION('refdir',(1.,0.,0.));
#388=DIRECTION('center_axis',(0.,0.,-1.));
#389=DIRECTION('ref_axis',(-1.,0.,0.));
#390=DIRECTION('center_axis',(0.,0.,1.));
#391=DIRECTION('ref_axis',(1.,0.,0.));
#392=DIRECTION('',(0.,0.,-1.));
#393=DIRECTION('center_axis',(0.,0.,1.));
#394=DIRECTION('ref_axis',(1.,0.,0.));
#395=DIRECTION('',(0.,0.,-1.));
#396=DIRECTION('center_axis',(0.,0.,-1.));
#397=DIRECTION('ref_axis',(-1.,0.,0.));
#398=DIRECTION('center_axis',(0.,0.,1.));
#399=DIRECTION('ref_axis',(1.,0.,0.));
#400=DIRECTION('',(0.,0.,-1.));
#401=DIRECTION('center_axis',(0.,0.,1.));
#402=DIRECTION('ref_axis',(1.,0.,0.));
#403=DIRECTION('',(0.,0.,-1.));
#404=DIRECTION('center_axis',(0.,0.,-1.));
#405=DIRECTION('ref_axis',(-1.,0.,0.));
#406=DIRECTION('center_axis',(0.,0.,1.));
#407=DIRECTION('ref_axis',(1.,0.,0.));
#408=DIRECTION('',(0.,0.,-1.));
#409=DIRECTION('center_axis',(0.,0.,1.));
#410=DIRECTION('ref_axis',(1.,0.,0.));
#411=DIRECTION('center_axis',(1.,3.16306737708041E-16,0.));
#412=DIRECTION('ref_axis',(-4.44089209850063E-16,1.,0.));
#413=DIRECTION('',(3.16306737708041E-16,-1.,0.));
#414=DIRECTION('',(0.,0.,-1.));
#415=DIRECTION('',(3.16306737708041E-16,-1.,0.));
#416=DIRECTION('center_axis',(0.,0.,-1.));
#417=DIRECTION('ref_axis',(-1.,0.,0.));
#418=DIRECTION('center_axis',(0.,0.,1.));
#419=DIRECTION('ref_axis',(1.,0.,0.));
#420=DIRECTION('',(0.,0.,-1.));
#421=DIRECTION('center_axis',(0.,0.,1.));
#422=DIRECTION('ref_axis',(1.,0.,0.));
#423=DIRECTION('center_axis',(2.94020928131662E-16,-1.,0.));
#424=DIRECTION('ref_axis',(1.,0.,0.));
#425=DIRECTION('',(-1.,-2.94020928131662E-16,0.));
#426=DIRECTION('',(0.,0.,-1.));
#427=DIRECTION('',(-1.,-2.94020928131662E-16,0.));
#428=DIRECTION('center_axis',(0.,0.,-1.));
#429=DIRECTION('ref_axis',(-1.,0.,0.));
#430=DIRECTION('center_axis',(0.,0.,-1.));
#431=DIRECTION('ref_axis',(1.,0.,0.));
#432=DIRECTION('',(0.,0.,-1.));
#433=DIRECTION('center_axis',(0.,0.,-1.));
#434=DIRECTION('ref_axis',(1.,0.,0.));
#435=DIRECTION('center_axis',(1.,-1.58153368854021E-16,0.));
#436=DIRECTION('ref_axis',(0.,1.,0.));
#437=DIRECTION('',(-1.58153368854021E-16,-1.,0.));
#438=DIRECTION('',(0.,0.,-1.));
#439=DIRECTION('',(-1.58153368854021E-16,-1.,0.));
#440=DIRECTION('center_axis',(0.,0.,-1.));
#441=DIRECTION('ref_axis',(-1.,0.,0.));
#442=DIRECTION('center_axis',(0.,0.,1.));
#443=DIRECTION('ref_axis',(1.,0.,0.));
#444=DIRECTION('center_axis',(0.,0.,1.));
#445=DIRECTION('ref_axis',(1.,0.,0.));
#446=DIRECTION('',(0.,0.,-1.));
#447=DIRECTION('center_axis',(0.,0.,-1.));
#448=DIRECTION('ref_axis',(-1.,0.,0.));
#449=DIRECTION('center_axis',(0.,0.,-1.));
#450=DIRECTION('ref_axis',(1.,2.89120579329468E-15,0.));
#451=DIRECTION('',(0.,0.,-1.));
#452=DIRECTION('center_axis',(0.,0.,-1.));
#453=DIRECTION('ref_axis',(1.,2.89120579329468E-15,0.));
#454=DIRECTION('center_axis',(1.,0.,0.));
#455=DIRECTION('ref_axis',(0.,0.,-1.));
#456=DIRECTION('',(0.,-1.,0.));
#457=DIRECTION('',(0.,0.,-1.));
#458=DIRECTION('',(0.,-1.,0.));
#459=DIRECTION('center_axis',(0.,0.,-1.));
#460=DIRECTION('ref_axis',(-1.,0.,0.));
#461=DIRECTION('center_axis',(0.,0.,-1.));
#462=DIRECTION('ref_axis',(1.,0.,0.));
#463=DIRECTION('',(0.,0.,-1.));
#464=DIRECTION('center_axis',(0.,0.,-1.));
#465=DIRECTION('ref_axis',(1.,0.,0.));
#466=DIRECTION('center_axis',(2.94020928131662E-16,-1.,0.));
#467=DIRECTION('ref_axis',(1.,0.,0.));
#468=DIRECTION('',(-1.,-2.94020928131662E-16,0.));
#469=DIRECTION('',(0.,0.,-1.));
#470=DIRECTION('',(-1.,-2.94020928131662E-16,0.));
#471=DIRECTION('center_axis',(0.,0.,-1.));
#472=DIRECTION('ref_axis',(-1.,0.,0.));
#473=DIRECTION('center_axis',(0.,0.,1.));
#474=DIRECTION('ref_axis',(1.,0.,0.));
#475=DIRECTION('',(0.,0.,-1.));
#476=DIRECTION('center_axis',(0.,0.,1.));
#477=DIRECTION('ref_axis',(1.,0.,0.));
#478=DIRECTION('center_axis',(1.,3.16306737708041E-16,0.));
#479=DIRECTION('ref_axis',(-4.44089209850063E-16,1.,0.));
#480=DIRECTION('',(3.16306737708041E-16,-1.,0.));
#481=DIRECTION('',(3.16306737708041E-16,-1.,0.));
#482=DIRECTION('center_axis',(0.,0.,-1.));
#483=DIRECTION('ref_axis',(-1.,0.,0.));
#484=DIRECTION('center_axis',(0.,0.,-1.));
#485=DIRECTION('ref_axis',(1.,1.73472347597681E-15,0.));
#486=DIRECTION('center_axis',(0.,0.,-1.));
#487=DIRECTION('ref_axis',(1.,1.73472347597681E-15,0.));
#488=DIRECTION('center_axis',(0.,0.,1.));
#489=DIRECTION('ref_axis',(1.,0.,0.));
#490=DIRECTION('center_axis',(0.,0.,1.));
#491=DIRECTION('ref_axis',(1.,0.,0.));
#492=CARTESIAN_POINT('',(0.,0.,0.));
#493=CARTESIAN_POINT('Origin',(0.,0.,3.));
#494=CARTESIAN_POINT('',(-4.0777027027027,5.81225779438344,3.));
#495=CARTESIAN_POINT('',(4.0777027027027,5.81225779438344,3.));
#496=CARTESIAN_POINT('Origin',(0.,0.,3.));
#497=CARTESIAN_POINT('',(-4.0777027027027,5.81225779438344,-3.));
#498=CARTESIAN_POINT('',(-4.0777027027027,5.81225779438344,3.));
#499=CARTESIAN_POINT('',(4.0777027027027,5.81225779438344,-3.));
#500=CARTESIAN_POINT('Origin',(0.,0.,-3.));
#501=CARTESIAN_POINT('',(4.0777027027027,5.81225779438344,3.));
#502=CARTESIAN_POINT('Origin',(0.,0.,3.));
#503=CARTESIAN_POINT('',(-3.67567567567568,5.23921829352874,3.));
#504=CARTESIAN_POINT('',(3.67567567567568,5.23921829352874,3.));
#505=CARTESIAN_POINT('Origin',(0.,0.,3.));
#506=CARTESIAN_POINT('',(3.67567567567568,5.23921829352874,-3.));
#507=CARTESIAN_POINT('',(3.67567567567568,5.23921829352874,3.));
#508=CARTESIAN_POINT('',(-3.67567567567568,5.23921829352874,-3.));
#509=CARTESIAN_POINT('Origin',(0.,0.,-3.));
#510=CARTESIAN_POINT('',(-3.67567567567568,5.23921829352874,3.));
#511=CARTESIAN_POINT('Origin',(-4.25,6.0578461518926,3.));
#512=CARTESIAN_POINT('',(-3.25,6.0578461518926,-3.));
#513=CARTESIAN_POINT('Origin',(-4.25,6.0578461518926,-3.));
#514=CARTESIAN_POINT('',(-3.25,6.0578461518926,3.));
#515=CARTESIAN_POINT('',(-3.25,6.0578461518926,3.));
#516=CARTESIAN_POINT('Origin',(-4.25,6.0578461518926,3.));
#517=CARTESIAN_POINT('Origin',(-3.25,-1.02799689755113E-15,3.));
#518=CARTESIAN_POINT('',(-3.25,8.8,-3.));
#519=CARTESIAN_POINT('',(-3.25,-1.02799689755113E-15,-3.));
#520=CARTESIAN_POINT('',(-3.25,8.8,3.));
#521=CARTESIAN_POINT('',(-3.25,8.8,3.));
#522=CARTESIAN_POINT('',(-3.25,-1.02799689755113E-15,3.));
#523=CARTESIAN_POINT('Origin',(-2.95,8.8,3.));
#524=CARTESIAN_POINT('',(-2.95,9.1,-3.));
#525=CARTESIAN_POINT('Origin',(-2.95,8.8,-3.));
#526=CARTESIAN_POINT('',(-2.95,9.1,3.));
#527=CARTESIAN_POINT('',(-2.95,9.1,3.));
#528=CARTESIAN_POINT('Origin',(-2.95,8.8,3.));
#529=CARTESIAN_POINT('Origin',(-2.67559044599813E-15,9.1,3.));
#530=CARTESIAN_POINT('',(2.95,9.1,-3.));
#531=CARTESIAN_POINT('',(-2.67559044599813E-15,9.1,-3.));
#532=CARTESIAN_POINT('',(2.95,9.1,3.));
#533=CARTESIAN_POINT('',(2.95,9.1,3.));
#534=CARTESIAN_POINT('',(-2.67559044599813E-15,9.1,3.));
#535=CARTESIAN_POINT('Origin',(2.95,8.8,3.));
#536=CARTESIAN_POINT('',(3.25,8.8,-3.));
#537=CARTESIAN_POINT('Origin',(2.95,8.8,-3.));
#538=CARTESIAN_POINT('',(3.25,8.8,3.));
#539=CARTESIAN_POINT('',(3.25,8.8,3.));
#540=CARTESIAN_POINT('Origin',(2.95,8.8,3.));
#541=CARTESIAN_POINT('Origin',(3.25,-5.13998448775567E-16,3.));
#542=CARTESIAN_POINT('',(3.25,6.0578461518926,-3.));
#543=CARTESIAN_POINT('',(3.25,-5.13998448775567E-16,-3.));
#544=CARTESIAN_POINT('',(3.25,6.0578461518926,3.));
#545=CARTESIAN_POINT('',(3.25,6.0578461518926,3.));
#546=CARTESIAN_POINT('',(3.25,-5.13998448775567E-16,3.));
#547=CARTESIAN_POINT('Origin',(-4.25,6.0578461518926,3.));
#548=CARTESIAN_POINT('',(-3.95,6.0578461518926,-3.));
#549=CARTESIAN_POINT('Origin',(-4.25,6.0578461518926,-3.));
#550=CARTESIAN_POINT('',(-3.95,6.0578461518926,3.));
#551=CARTESIAN_POINT('Origin',(-4.25,6.0578461518926,3.));
#552=CARTESIAN_POINT('',(-3.95,6.0578461518926,3.));
#553=CARTESIAN_POINT('Origin',(4.25,6.0578461518926,3.));
#554=CARTESIAN_POINT('',(3.95,6.0578461518926,-3.));
#555=CARTESIAN_POINT('Origin',(4.25,6.0578461518926,-3.));
#556=CARTESIAN_POINT('',(3.95,6.0578461518926,3.));
#557=CARTESIAN_POINT('',(3.95,6.0578461518926,3.));
#558=CARTESIAN_POINT('Origin',(4.25,6.0578461518926,3.));
#559=CARTESIAN_POINT('Origin',(3.95,0.,3.));
#560=CARTESIAN_POINT('',(3.95,8.8,-3.));
#561=CARTESIAN_POINT('',(3.95,0.,-3.));
#562=CARTESIAN_POINT('',(3.95,8.8,3.));
#563=CARTESIAN_POINT('',(3.95,8.8,3.));
#564=CARTESIAN_POINT('',(3.95,0.,3.));
#565=CARTESIAN_POINT('Origin',(2.95,8.8,3.));
#566=CARTESIAN_POINT('',(2.95,9.8,-3.));
#567=CARTESIAN_POINT('Origin',(2.95,8.8,-3.));
#568=CARTESIAN_POINT('',(2.95,9.8,3.));
#569=CARTESIAN_POINT('',(2.95,9.8,3.));
#570=CARTESIAN_POINT('Origin',(2.95,8.8,3.));
#571=CARTESIAN_POINT('Origin',(-2.88140509569029E-15,9.8,3.));
#572=CARTESIAN_POINT('',(-2.95,9.8,-3.));
#573=CARTESIAN_POINT('',(-2.88140509569029E-15,9.8,-3.));
#574=CARTESIAN_POINT('',(-2.95,9.8,3.));
#575=CARTESIAN_POINT('',(-2.95,9.8,3.));
#576=CARTESIAN_POINT('',(-2.88140509569029E-15,9.8,3.));
#577=CARTESIAN_POINT('Origin',(-2.95,8.8,3.));
#578=CARTESIAN_POINT('',(-3.95,8.8,-3.));
#579=CARTESIAN_POINT('Origin',(-2.95,8.8,-3.));
#580=CARTESIAN_POINT('',(-3.95,8.8,3.));
#581=CARTESIAN_POINT('',(-3.95,8.8,3.));
#582=CARTESIAN_POINT('Origin',(-2.95,8.8,3.));
#583=CARTESIAN_POINT('Origin',(-3.95,-1.24941161394676E-15,3.));
#584=CARTESIAN_POINT('',(-3.95,-1.24941161394676E-15,-3.));
#585=CARTESIAN_POINT('',(-3.95,-1.24941161394676E-15,3.));
#586=CARTESIAN_POINT('Origin',(4.25,6.0578461518926,3.));
#587=CARTESIAN_POINT('Origin',(4.25,6.0578461518926,-3.));
#588=CARTESIAN_POINT('Origin',(4.25,6.0578461518926,3.));
#589=CARTESIAN_POINT('Origin',(0.,0.,3.));
#590=CARTESIAN_POINT('Origin',(0.,0.,-3.));
#591=UNCERTAINTY_MEASURE_WITH_UNIT(LENGTH_MEASURE(0.01),#595,
'DISTANCE_ACCURACY_VALUE',
'Maximum model space distance between geometric entities at asserted c
onnectivities');
#592=UNCERTAINTY_MEASURE_WITH_UNIT(LENGTH_MEASURE(1.E-6),#595,
'DISTANCE_ACCURACY_VALUE',
'Maximum model space distance between geometric entities at asserted c
onnectivities');
#593=(
GEOMETRIC_REPRESENTATION_CONTEXT(3)
GLOBAL_UNCERTAINTY_ASSIGNED_CONTEXT((#591))
GLOBAL_UNIT_ASSIGNED_CONTEXT((#595,#597,#596))
REPRESENTATION_CONTEXT('','3D')
);
#594=(
GEOMETRIC_REPRESENTATION_CONTEXT(3)
GLOBAL_UNCERTAINTY_ASSIGNED_CONTEXT((#592))
GLOBAL_UNIT_ASSIGNED_CONTEXT((#595,#12,#596))
REPRESENTATION_CONTEXT('','3D')
);
#595=(
LENGTH_UNIT()
NAMED_UNIT(*)
SI_UNIT(.MILLI.,.METRE.)
);
#596=(
NAMED_UNIT(*)
SI_UNIT($,.STERADIAN.)
SOLID_ANGLE_UNIT()
);
#597=(
NAMED_UNIT(*)
PLANE_ANGLE_UNIT()
SI_UNIT($,.RADIAN.)
);
#598=SHAPE_DEFINITION_REPRESENTATION(#599,#600);
#599=PRODUCT_DEFINITION_SHAPE('',$,#602);
#600=SHAPE_REPRESENTATION('',(#347),#593);
#601=PRODUCT_DEFINITION_CONTEXT('part definition',#606,'design');
#602=PRODUCT_DEFINITION('sso_1-12_8_es','sso_1-12_8_es',#603,#601);
#603=PRODUCT_DEFINITION_FORMATION('',$,#608);
#604=PRODUCT_RELATED_PRODUCT_CATEGORY('sso_1-12_8_es','sso_1-12_8_es',(#608));
#605=APPLICATION_PROTOCOL_DEFINITION('international standard',
'automotive_design',2009,#606);
#606=APPLICATION_CONTEXT(
'Core Data for Automotive Mechanical Design Process');
#607=PRODUCT_CONTEXT('part definition',#606,'mechanical');
#608=PRODUCT('sso_1-12_8_es','sso_1-12_8_es',$,(#607));
#609=PRESENTATION_STYLE_ASSIGNMENT((#611));
#610=PRESENTATION_STYLE_ASSIGNMENT((#612));
#611=SURFACE_STYLE_USAGE(.BOTH.,#613);
#612=SURFACE_STYLE_USAGE(.BOTH.,#614);
#613=SURFACE_SIDE_STYLE($,(#615));
#614=SURFACE_SIDE_STYLE($,(#616));
#615=SURFACE_STYLE_FILL_AREA(#617);
#616=SURFACE_STYLE_FILL_AREA(#618);
#617=FILL_AREA_STYLE($,(#619));
#618=FILL_AREA_STYLE($,(#620));
#619=FILL_AREA_STYLE_COLOUR($,#621);
#620=FILL_AREA_STYLE_COLOUR($,#622);
#621=COLOUR_RGB('',0.749019607843137,0.749019607843137,0.749019607843137);
#622=COLOUR_RGB('',0.796078431372549,0.823529411764706,0.937254901960784);
ENDSEC;
END-ISO-10303-21;
