ISO-10303-21;
HEADER;
/* Generated by software containing ST-Developer
 * from STEP Tools, Inc. (www.steptools.com) 
 */

FILE_DESCRIPTION(
/* description */ (''),
/* implementation_level */ '2;1');

FILE_NAME(
/* name */ 'H:\\CAD\\neutral\\3d\\72333\\rle2_1418_a.stp',
/* time_stamp */ '2018-04-12T09:29:06+02:00',
/* author */ ('leitheu\X\DFer'),
/* organization */ (''),
/* preprocessor_version */ 'ST-DEVELOPER v15.6',
/* originating_system */ 'Autodesk Inventor LT ',
/* authorisation */ '');

FILE_SCHEMA (('AUTOMOTIVE_DESIGN { 1 0 10303 214 3 1 1 }'));
ENDSEC;

DATA;
#10=MECHANICAL_DESIGN_GEOMETRIC_PRESENTATION_REPRESENTATION('',(#16),#500);
#11=DIMENSIONAL_EXPONENTS(0.,0.,0.,0.,0.,0.,0.);
#12=(
CONVERSION_BASED_UNIT('degree',#13)
NAMED_UNIT(#11)
PLANE_ANGLE_UNIT()
);
#13=PLANE_ANGLE_MEASURE_WITH_UNIT(PLANE_ANGLE_MEASURE(0.01745329252),#503);
#14=SHAPE_REPRESENTATION_RELATIONSHIP('SRR','None',#506,#15);
#15=ADVANCED_BREP_SHAPE_REPRESENTATION($,(#17),#499);
#16=STYLED_ITEM('',(#515),#17);
#17=MANIFOLD_SOLID_BREP('1',#254);
#18=LINE('',#474,#30);
#19=LINE('',#476,#31);
#20=LINE('',#478,#32);
#21=LINE('',#479,#33);
#22=LINE('',#482,#34);
#23=LINE('',#484,#35);
#24=LINE('',#485,#36);
#25=LINE('',#488,#37);
#26=LINE('',#490,#38);
#27=LINE('',#491,#39);
#28=LINE('',#493,#40);
#29=LINE('',#494,#41);
#30=VECTOR('',#329,30.);
#31=VECTOR('',#330,60.);
#32=VECTOR('',#331,30.);
#33=VECTOR('',#332,60.);
#34=VECTOR('',#335,20.);
#35=VECTOR('',#336,60.);
#36=VECTOR('',#337,20.);
#37=VECTOR('',#340,30.);
#38=VECTOR('',#341,60.);
#39=VECTOR('',#342,30.);
#40=VECTOR('',#345,20.);
#41=VECTOR('',#346,20.);
#42=PLANE('',#277);
#43=PLANE('',#278);
#44=PLANE('',#279);
#45=PLANE('',#280);
#46=PLANE('',#281);
#47=PLANE('',#282);
#48=CONICAL_SURFACE('',#269,5.7225,1.02974425867665);
#49=CONICAL_SURFACE('',#274,5.7225,1.02974425867665);
#50=FACE_BOUND('',#97,.T.);
#51=FACE_BOUND('',#99,.T.);
#52=FACE_BOUND('',#101,.T.);
#53=FACE_BOUND('',#103,.T.);
#54=FACE_BOUND('',#105,.T.);
#55=FACE_BOUND('',#107,.T.);
#56=FACE_BOUND('',#109,.T.);
#57=FACE_BOUND('',#111,.T.);
#58=FACE_BOUND('',#113,.T.);
#59=FACE_BOUND('',#114,.T.);
#60=FACE_BOUND('',#115,.T.);
#61=FACE_BOUND('',#117,.T.);
#62=FACE_BOUND('',#118,.T.);
#63=FACE_BOUND('',#120,.T.);
#64=FACE_BOUND('',#121,.T.);
#65=FACE_BOUND('',#123,.T.);
#66=FACE_BOUND('',#124,.T.);
#67=FACE_BOUND('',#127,.T.);
#68=FACE_BOUND('',#129,.T.);
#69=CIRCLE('',#257,4.28299999999999);
#70=CIRCLE('',#259,4.28299999999999);
#71=CIRCLE('',#261,2.6);
#72=CIRCLE('',#262,2.6);
#73=CIRCLE('',#264,2.6);
#74=CIRCLE('',#265,2.6);
#75=CIRCLE('',#267,5.7225);
#76=CIRCLE('',#268,5.7225);
#77=CIRCLE('',#270,5.);
#78=CIRCLE('',#272,5.7225);
#79=CIRCLE('',#273,5.7225);
#80=CIRCLE('',#275,5.);
#81=FACE_OUTER_BOUND('',#96,.T.);
#82=FACE_OUTER_BOUND('',#98,.T.);
#83=FACE_OUTER_BOUND('',#100,.T.);
#84=FACE_OUTER_BOUND('',#102,.T.);
#85=FACE_OUTER_BOUND('',#104,.T.);
#86=FACE_OUTER_BOUND('',#106,.T.);
#87=FACE_OUTER_BOUND('',#108,.T.);
#88=FACE_OUTER_BOUND('',#110,.T.);
#89=FACE_OUTER_BOUND('',#112,.T.);
#90=FACE_OUTER_BOUND('',#116,.T.);
#91=FACE_OUTER_BOUND('',#119,.T.);
#92=FACE_OUTER_BOUND('',#122,.T.);
#93=FACE_OUTER_BOUND('',#125,.T.);
#94=FACE_OUTER_BOUND('',#126,.T.);
#95=FACE_OUTER_BOUND('',#128,.T.);
#96=EDGE_LOOP('',(#180));
#97=EDGE_LOOP('',(#181));
#98=EDGE_LOOP('',(#182));
#99=EDGE_LOOP('',(#183));
#100=EDGE_LOOP('',(#184));
#101=EDGE_LOOP('',(#185));
#102=EDGE_LOOP('',(#186));
#103=EDGE_LOOP('',(#187));
#104=EDGE_LOOP('',(#188));
#105=EDGE_LOOP('',(#189));
#106=EDGE_LOOP('',(#190));
#107=EDGE_LOOP('',(#191));
#108=EDGE_LOOP('',(#192));
#109=EDGE_LOOP('',(#193));
#110=EDGE_LOOP('',(#194));
#111=EDGE_LOOP('',(#195));
#112=EDGE_LOOP('',(#196));
#113=EDGE_LOOP('',(#197));
#114=EDGE_LOOP('',(#198));
#115=EDGE_LOOP('',(#199));
#116=EDGE_LOOP('',(#200,#201,#202,#203));
#117=EDGE_LOOP('',(#204));
#118=EDGE_LOOP('',(#205));
#119=EDGE_LOOP('',(#206,#207,#208,#209));
#120=EDGE_LOOP('',(#210));
#121=EDGE_LOOP('',(#211));
#122=EDGE_LOOP('',(#212,#213,#214,#215));
#123=EDGE_LOOP('',(#216));
#124=EDGE_LOOP('',(#217));
#125=EDGE_LOOP('',(#218,#219,#220,#221));
#126=EDGE_LOOP('',(#222,#223,#224,#225));
#127=EDGE_LOOP('',(#226));
#128=EDGE_LOOP('',(#227,#228,#229,#230));
#129=EDGE_LOOP('',(#231));
#130=B_SPLINE_CURVE_WITH_KNOTS('',3,(#354,#355,#356,#357,#358,#359,#360,
#361,#362,#363,#364,#365,#366,#367,#368,#369,#370,#371,#372,#373,#374,#375,
#376,#377,#378,#379,#380,#381,#382,#383,#384,#385,#386,#387,#388,#389,#390,
#391,#392,#393,#394,#395),.UNSPECIFIED.,.T.,.F.,(4,2,2,2,2,2,2,2,2,2,2,
2,2,2,2,2,2,2,2,2,4),(-2.82070378893725,-2.73033093829707,-2.63995808765689,
-2.45921238637653,-2.28737011403973,-2.11552784170293,-1.94368556936614,
-1.77184329702934,-1.59109759574898,-1.5007247451088,-1.41035189446862,
-1.31997904382844,-1.22960619318826,-1.04886049190791,-0.877018219571109,
-0.705175947234311,-0.533333674897514,-0.361491402560717,-0.180745701280359,
-0.0903728506401793,0.),.UNSPECIFIED.);
#131=B_SPLINE_CURVE_WITH_KNOTS('',3,(#400,#401,#402,#403,#404,#405,#406,
#407,#408,#409,#410,#411,#412,#413,#414,#415,#416,#417,#418,#419,#420,#421,
#422,#423,#424,#425,#426,#427,#428,#429,#430,#431,#432,#433,#434,#435,#436,
#437,#438,#439,#440,#441),.UNSPECIFIED.,.T.,.F.,(4,2,2,2,2,2,2,2,2,2,2,
2,2,2,2,2,2,2,2,2,4),(-2.82070378893725,-2.73033093829707,-2.63995808765689,
-2.45921238637653,-2.28737011403973,-2.11552784170293,-1.94368556936614,
-1.77184329702934,-1.59109759574898,-1.5007247451088,-1.41035189446862,
-1.31997904382844,-1.22960619318826,-1.04886049190791,-0.877018219571109,
-0.705175947234311,-0.533333674897514,-0.361491402560717,-0.180745701280358,
-0.0903728506401792,0.),.UNSPECIFIED.);
#132=VERTEX_POINT('',#353);
#133=VERTEX_POINT('',#396);
#134=VERTEX_POINT('',#399);
#135=VERTEX_POINT('',#442);
#136=VERTEX_POINT('',#445);
#137=VERTEX_POINT('',#447);
#138=VERTEX_POINT('',#450);
#139=VERTEX_POINT('',#452);
#140=VERTEX_POINT('',#455);
#141=VERTEX_POINT('',#457);
#142=VERTEX_POINT('',#460);
#143=VERTEX_POINT('',#463);
#144=VERTEX_POINT('',#465);
#145=VERTEX_POINT('',#468);
#146=VERTEX_POINT('',#472);
#147=VERTEX_POINT('',#473);
#148=VERTEX_POINT('',#475);
#149=VERTEX_POINT('',#477);
#150=VERTEX_POINT('',#481);
#151=VERTEX_POINT('',#483);
#152=VERTEX_POINT('',#487);
#153=VERTEX_POINT('',#489);
#154=EDGE_CURVE('',#132,#132,#130,.T.);
#155=EDGE_CURVE('',#133,#133,#69,.T.);
#156=EDGE_CURVE('',#134,#134,#131,.T.);
#157=EDGE_CURVE('',#135,#135,#70,.T.);
#158=EDGE_CURVE('',#136,#136,#71,.T.);
#159=EDGE_CURVE('',#137,#137,#72,.T.);
#160=EDGE_CURVE('',#138,#138,#73,.T.);
#161=EDGE_CURVE('',#139,#139,#74,.T.);
#162=EDGE_CURVE('',#140,#140,#75,.T.);
#163=EDGE_CURVE('',#141,#141,#76,.T.);
#164=EDGE_CURVE('',#142,#142,#77,.T.);
#165=EDGE_CURVE('',#143,#143,#78,.T.);
#166=EDGE_CURVE('',#144,#144,#79,.T.);
#167=EDGE_CURVE('',#145,#145,#80,.T.);
#168=EDGE_CURVE('',#146,#147,#18,.T.);
#169=EDGE_CURVE('',#148,#146,#19,.T.);
#170=EDGE_CURVE('',#148,#149,#20,.T.);
#171=EDGE_CURVE('',#149,#147,#21,.T.);
#172=EDGE_CURVE('',#150,#146,#22,.T.);
#173=EDGE_CURVE('',#151,#150,#23,.T.);
#174=EDGE_CURVE('',#151,#148,#24,.T.);
#175=EDGE_CURVE('',#152,#150,#25,.T.);
#176=EDGE_CURVE('',#153,#152,#26,.T.);
#177=EDGE_CURVE('',#153,#151,#27,.T.);
#178=EDGE_CURVE('',#147,#152,#28,.T.);
#179=EDGE_CURVE('',#149,#153,#29,.T.);
#180=ORIENTED_EDGE('',*,*,#154,.F.);
#181=ORIENTED_EDGE('',*,*,#155,.T.);
#182=ORIENTED_EDGE('',*,*,#156,.F.);
#183=ORIENTED_EDGE('',*,*,#157,.T.);
#184=ORIENTED_EDGE('',*,*,#158,.F.);
#185=ORIENTED_EDGE('',*,*,#159,.T.);
#186=ORIENTED_EDGE('',*,*,#160,.F.);
#187=ORIENTED_EDGE('',*,*,#161,.T.);
#188=ORIENTED_EDGE('',*,*,#162,.F.);
#189=ORIENTED_EDGE('',*,*,#163,.T.);
#190=ORIENTED_EDGE('',*,*,#164,.F.);
#191=ORIENTED_EDGE('',*,*,#162,.T.);
#192=ORIENTED_EDGE('',*,*,#165,.F.);
#193=ORIENTED_EDGE('',*,*,#166,.T.);
#194=ORIENTED_EDGE('',*,*,#167,.F.);
#195=ORIENTED_EDGE('',*,*,#165,.T.);
#196=ORIENTED_EDGE('',*,*,#164,.T.);
#197=ORIENTED_EDGE('',*,*,#156,.T.);
#198=ORIENTED_EDGE('',*,*,#154,.T.);
#199=ORIENTED_EDGE('',*,*,#167,.T.);
#200=ORIENTED_EDGE('',*,*,#168,.F.);
#201=ORIENTED_EDGE('',*,*,#169,.F.);
#202=ORIENTED_EDGE('',*,*,#170,.T.);
#203=ORIENTED_EDGE('',*,*,#171,.T.);
#204=ORIENTED_EDGE('',*,*,#158,.T.);
#205=ORIENTED_EDGE('',*,*,#160,.T.);
#206=ORIENTED_EDGE('',*,*,#172,.F.);
#207=ORIENTED_EDGE('',*,*,#173,.F.);
#208=ORIENTED_EDGE('',*,*,#174,.T.);
#209=ORIENTED_EDGE('',*,*,#169,.T.);
#210=ORIENTED_EDGE('',*,*,#155,.F.);
#211=ORIENTED_EDGE('',*,*,#157,.F.);
#212=ORIENTED_EDGE('',*,*,#175,.F.);
#213=ORIENTED_EDGE('',*,*,#176,.F.);
#214=ORIENTED_EDGE('',*,*,#177,.T.);
#215=ORIENTED_EDGE('',*,*,#173,.T.);
#216=ORIENTED_EDGE('',*,*,#159,.F.);
#217=ORIENTED_EDGE('',*,*,#161,.F.);
#218=ORIENTED_EDGE('',*,*,#178,.F.);
#219=ORIENTED_EDGE('',*,*,#171,.F.);
#220=ORIENTED_EDGE('',*,*,#179,.T.);
#221=ORIENTED_EDGE('',*,*,#176,.T.);
#222=ORIENTED_EDGE('',*,*,#170,.F.);
#223=ORIENTED_EDGE('',*,*,#174,.F.);
#224=ORIENTED_EDGE('',*,*,#177,.F.);
#225=ORIENTED_EDGE('',*,*,#179,.F.);
#226=ORIENTED_EDGE('',*,*,#163,.F.);
#227=ORIENTED_EDGE('',*,*,#168,.T.);
#228=ORIENTED_EDGE('',*,*,#178,.T.);
#229=ORIENTED_EDGE('',*,*,#175,.T.);
#230=ORIENTED_EDGE('',*,*,#172,.T.);
#231=ORIENTED_EDGE('',*,*,#166,.F.);
#232=CYLINDRICAL_SURFACE('',#256,4.28299999999999);
#233=CYLINDRICAL_SURFACE('',#258,4.28299999999999);
#234=CYLINDRICAL_SURFACE('',#260,2.6);
#235=CYLINDRICAL_SURFACE('',#263,2.6);
#236=CYLINDRICAL_SURFACE('',#266,5.7225);
#237=CYLINDRICAL_SURFACE('',#271,5.7225);
#238=CYLINDRICAL_SURFACE('',#276,5.);
#239=ADVANCED_FACE('',(#81,#50),#232,.F.);
#240=ADVANCED_FACE('',(#82,#51),#233,.F.);
#241=ADVANCED_FACE('',(#83,#52),#234,.F.);
#242=ADVANCED_FACE('',(#84,#53),#235,.F.);
#243=ADVANCED_FACE('',(#85,#54),#236,.F.);
#244=ADVANCED_FACE('',(#86,#55),#48,.F.);
#245=ADVANCED_FACE('',(#87,#56),#237,.F.);
#246=ADVANCED_FACE('',(#88,#57),#49,.F.);
#247=ADVANCED_FACE('',(#89,#58,#59,#60),#238,.F.);
#248=ADVANCED_FACE('',(#90,#61,#62),#42,.T.);
#249=ADVANCED_FACE('',(#91,#63,#64),#43,.T.);
#250=ADVANCED_FACE('',(#92,#65,#66),#44,.T.);
#251=ADVANCED_FACE('',(#93),#45,.T.);
#252=ADVANCED_FACE('',(#94,#67),#46,.T.);
#253=ADVANCED_FACE('',(#95,#68),#47,.F.);
#254=CLOSED_SHELL('',(#239,#240,#241,#242,#243,#244,#245,#246,#247,#248,
#249,#250,#251,#252,#253));
#255=AXIS2_PLACEMENT_3D('placement',#351,#283,#284);
#256=AXIS2_PLACEMENT_3D('',#352,#285,#286);
#257=AXIS2_PLACEMENT_3D('',#397,#287,#288);
#258=AXIS2_PLACEMENT_3D('',#398,#289,#290);
#259=AXIS2_PLACEMENT_3D('',#443,#291,#292);
#260=AXIS2_PLACEMENT_3D('',#444,#293,#294);
#261=AXIS2_PLACEMENT_3D('',#446,#295,#296);
#262=AXIS2_PLACEMENT_3D('',#448,#297,#298);
#263=AXIS2_PLACEMENT_3D('',#449,#299,#300);
#264=AXIS2_PLACEMENT_3D('',#451,#301,#302);
#265=AXIS2_PLACEMENT_3D('',#453,#303,#304);
#266=AXIS2_PLACEMENT_3D('',#454,#305,#306);
#267=AXIS2_PLACEMENT_3D('',#456,#307,#308);
#268=AXIS2_PLACEMENT_3D('',#458,#309,#310);
#269=AXIS2_PLACEMENT_3D('',#459,#311,#312);
#270=AXIS2_PLACEMENT_3D('',#461,#313,#314);
#271=AXIS2_PLACEMENT_3D('',#462,#315,#316);
#272=AXIS2_PLACEMENT_3D('',#464,#317,#318);
#273=AXIS2_PLACEMENT_3D('',#466,#319,#320);
#274=AXIS2_PLACEMENT_3D('',#467,#321,#322);
#275=AXIS2_PLACEMENT_3D('',#469,#323,#324);
#276=AXIS2_PLACEMENT_3D('',#470,#325,#326);
#277=AXIS2_PLACEMENT_3D('',#471,#327,#328);
#278=AXIS2_PLACEMENT_3D('',#480,#333,#334);
#279=AXIS2_PLACEMENT_3D('',#486,#338,#339);
#280=AXIS2_PLACEMENT_3D('',#492,#343,#344);
#281=AXIS2_PLACEMENT_3D('',#495,#347,#348);
#282=AXIS2_PLACEMENT_3D('',#496,#349,#350);
#283=DIRECTION('axis',(0.,0.,1.));
#284=DIRECTION('refdir',(1.,0.,0.));
#285=DIRECTION('center_axis',(0.,1.,0.));
#286=DIRECTION('ref_axis',(0.,0.,1.));
#287=DIRECTION('center_axis',(0.,1.,0.));
#288=DIRECTION('ref_axis',(0.,0.,1.));
#289=DIRECTION('center_axis',(0.,1.,0.));
#290=DIRECTION('ref_axis',(0.,0.,1.));
#291=DIRECTION('center_axis',(0.,1.,0.));
#292=DIRECTION('ref_axis',(0.,0.,1.));
#293=DIRECTION('center_axis',(0.,0.,-1.));
#294=DIRECTION('ref_axis',(-1.,0.,0.));
#295=DIRECTION('center_axis',(0.,0.,-1.));
#296=DIRECTION('ref_axis',(-1.,0.,0.));
#297=DIRECTION('center_axis',(0.,0.,-1.));
#298=DIRECTION('ref_axis',(-1.,0.,0.));
#299=DIRECTION('center_axis',(0.,0.,-1.));
#300=DIRECTION('ref_axis',(-1.,0.,0.));
#301=DIRECTION('center_axis',(0.,0.,-1.));
#302=DIRECTION('ref_axis',(-1.,0.,0.));
#303=DIRECTION('center_axis',(0.,0.,-1.));
#304=DIRECTION('ref_axis',(-1.,0.,0.));
#305=DIRECTION('center_axis',(-1.,0.,0.));
#306=DIRECTION('ref_axis',(0.,0.,1.));
#307=DIRECTION('center_axis',(-1.,0.,0.));
#308=DIRECTION('ref_axis',(0.,0.,1.));
#309=DIRECTION('center_axis',(-1.,0.,0.));
#310=DIRECTION('ref_axis',(0.,0.,1.));
#311=DIRECTION('center_axis',(-1.,0.,0.));
#312=DIRECTION('ref_axis',(0.,0.,1.));
#313=DIRECTION('center_axis',(-1.,0.,0.));
#314=DIRECTION('ref_axis',(0.,0.,1.));
#315=DIRECTION('center_axis',(1.,0.,0.));
#316=DIRECTION('ref_axis',(0.,0.,-1.));
#317=DIRECTION('center_axis',(1.,0.,0.));
#318=DIRECTION('ref_axis',(0.,0.,-1.));
#319=DIRECTION('center_axis',(1.,0.,0.));
#320=DIRECTION('ref_axis',(0.,0.,-1.));
#321=DIRECTION('center_axis',(1.,0.,0.));
#322=DIRECTION('ref_axis',(0.,0.,-1.));
#323=DIRECTION('center_axis',(1.,0.,0.));
#324=DIRECTION('ref_axis',(0.,0.,-1.));
#325=DIRECTION('center_axis',(1.,0.,0.));
#326=DIRECTION('ref_axis',(0.,0.,-1.));
#327=DIRECTION('center_axis',(0.,0.,1.));
#328=DIRECTION('ref_axis',(1.,0.,0.));
#329=DIRECTION('',(0.,-1.,0.));
#330=DIRECTION('',(1.,0.,0.));
#331=DIRECTION('',(0.,-1.,0.));
#332=DIRECTION('',(1.,0.,0.));
#333=DIRECTION('center_axis',(0.,1.,0.));
#334=DIRECTION('ref_axis',(0.,0.,1.));
#335=DIRECTION('',(0.,0.,1.));
#336=DIRECTION('',(1.,0.,0.));
#337=DIRECTION('',(0.,0.,1.));
#338=DIRECTION('center_axis',(0.,0.,-1.));
#339=DIRECTION('ref_axis',(-1.,0.,0.));
#340=DIRECTION('',(0.,1.,0.));
#341=DIRECTION('',(1.,0.,0.));
#342=DIRECTION('',(0.,1.,0.));
#343=DIRECTION('center_axis',(0.,-1.,0.));
#344=DIRECTION('ref_axis',(0.,0.,-1.));
#345=DIRECTION('',(0.,0.,-1.));
#346=DIRECTION('',(0.,0.,-1.));
#347=DIRECTION('center_axis',(-1.,0.,0.));
#348=DIRECTION('ref_axis',(0.,0.,1.));
#349=DIRECTION('center_axis',(-1.,0.,0.));
#350=DIRECTION('ref_axis',(0.,0.,1.));
#351=CARTESIAN_POINT('',(0.,0.,0.));
#352=CARTESIAN_POINT('Origin',(-45.,30.,-10.));
#353=CARTESIAN_POINT('',(-45.,17.5799052308176,-14.283));
#354=CARTESIAN_POINT('Ctrl Pts',(-45.,17.5799052308176,-5.71700000000001));
#355=CARTESIAN_POINT('Ctrl Pts',(-44.6987571645328,17.5799052308176,-5.71700000000001));
#356=CARTESIAN_POINT('Ctrl Pts',(-44.4070567370684,17.6338421448938,-5.74860241761125));
#357=CARTESIAN_POINT('Ctrl Pts',(-43.8465076905073,17.8135132865671,-5.86531870842574));
#358=CARTESIAN_POINT('Ctrl Pts',(-43.5773844277394,17.9382988845813,-5.95057173477812));
#359=CARTESIAN_POINT('Ctrl Pts',(-42.8084825565355,18.3576880905309,-6.27819814516481));
#360=CARTESIAN_POINT('Ctrl Pts',(-42.3465903771971,18.6928739401805,-6.59633293515892));
#361=CARTESIAN_POINT('Ctrl Pts',(-41.6148115594837,19.249932048956,-7.32811175287232));
#362=CARTESIAN_POINT('Ctrl Pts',(-41.2880481583403,19.5187741043045,-7.78842002386564));
#363=CARTESIAN_POINT('Ctrl Pts',(-40.8385186737785,19.8947583808517,-8.83735322754275));
#364=CARTESIAN_POINT('Ctrl Pts',(-40.717,20.,-9.42719242554401));
#365=CARTESIAN_POINT('Ctrl Pts',(-40.717,20.,-10.572807574456));
#366=CARTESIAN_POINT('Ctrl Pts',(-40.8385186737785,19.8947583808517,-11.1626467724573));
#367=CARTESIAN_POINT('Ctrl Pts',(-41.2880481583403,19.5187741043045,-12.2115799761344));
#368=CARTESIAN_POINT('Ctrl Pts',(-41.6148115594837,19.249932048956,-12.6718882471277));
#369=CARTESIAN_POINT('Ctrl Pts',(-42.3465903771971,18.6928739401805,-13.4036670648411));
#370=CARTESIAN_POINT('Ctrl Pts',(-42.8084825565355,18.3576880905309,-13.7218018548352));
#371=CARTESIAN_POINT('Ctrl Pts',(-43.5773844277394,17.9382988845813,-14.0494282652219));
#372=CARTESIAN_POINT('Ctrl Pts',(-43.8465076905073,17.8135132865671,-14.1346812915743));
#373=CARTESIAN_POINT('Ctrl Pts',(-44.4070567370684,17.6338421448938,-14.2513975823888));
#374=CARTESIAN_POINT('Ctrl Pts',(-44.6987571645328,17.5799052308176,-14.283));
#375=CARTESIAN_POINT('Ctrl Pts',(-45.3012428354673,17.5799052308176,-14.283));
#376=CARTESIAN_POINT('Ctrl Pts',(-45.5929432629317,17.6338421448938,-14.2513975823888));
#377=CARTESIAN_POINT('Ctrl Pts',(-46.1534923094927,17.8135132865671,-14.1346812915743));
#378=CARTESIAN_POINT('Ctrl Pts',(-46.4226155722607,17.9382988845813,-14.0494282652219));
#379=CARTESIAN_POINT('Ctrl Pts',(-47.1915174434646,18.3576880905309,-13.7218018548352));
#380=CARTESIAN_POINT('Ctrl Pts',(-47.6534096228029,18.6928739401805,-13.4036670648411));
#381=CARTESIAN_POINT('Ctrl Pts',(-48.3851884405163,19.249932048956,-12.6718882471277));
#382=CARTESIAN_POINT('Ctrl Pts',(-48.7119518416597,19.5187741043045,-12.2115799761344));
#383=CARTESIAN_POINT('Ctrl Pts',(-49.1614813262215,19.8947583808517,-11.1626467724573));
#384=CARTESIAN_POINT('Ctrl Pts',(-49.283,20.,-10.572807574456));
#385=CARTESIAN_POINT('Ctrl Pts',(-49.283,20.,-9.42719242554401));
#386=CARTESIAN_POINT('Ctrl Pts',(-49.1614813262215,19.8947583808517,-8.83735322754275));
#387=CARTESIAN_POINT('Ctrl Pts',(-48.7119518416597,19.5187741043045,-7.78842002386563));
#388=CARTESIAN_POINT('Ctrl Pts',(-48.3851884405163,19.249932048956,-7.32811175287232));
#389=CARTESIAN_POINT('Ctrl Pts',(-47.6534096228029,18.6928739401805,-6.59633293515892));
#390=CARTESIAN_POINT('Ctrl Pts',(-47.1915174434646,18.3576880905309,-6.27819814516481));
#391=CARTESIAN_POINT('Ctrl Pts',(-46.4226155722607,17.9382988845813,-5.95057173477812));
#392=CARTESIAN_POINT('Ctrl Pts',(-46.1534923094927,17.8135132865671,-5.86531870842574));
#393=CARTESIAN_POINT('Ctrl Pts',(-45.5929432629317,17.6338421448938,-5.74860241761125));
#394=CARTESIAN_POINT('Ctrl Pts',(-45.3012428354673,17.5799052308176,-5.71700000000001));
#395=CARTESIAN_POINT('Ctrl Pts',(-45.,17.5799052308176,-5.71700000000001));
#396=CARTESIAN_POINT('',(-45.,30.,-5.71700000000001));
#397=CARTESIAN_POINT('Origin',(-45.,30.,-10.));
#398=CARTESIAN_POINT('Origin',(-15.,30.,-10.));
#399=CARTESIAN_POINT('',(-15.,17.5799052308176,-14.283));
#400=CARTESIAN_POINT('Ctrl Pts',(-15.,17.5799052308176,-5.71700000000001));
#401=CARTESIAN_POINT('Ctrl Pts',(-14.6987571645327,17.5799052308176,-5.71700000000001));
#402=CARTESIAN_POINT('Ctrl Pts',(-14.4070567370684,17.6338421448938,-5.74860241761125));
#403=CARTESIAN_POINT('Ctrl Pts',(-13.8465076905073,17.8135132865671,-5.86531870842574));
#404=CARTESIAN_POINT('Ctrl Pts',(-13.5773844277393,17.9382988845813,-5.95057173477812));
#405=CARTESIAN_POINT('Ctrl Pts',(-12.8084825565354,18.3576880905309,-6.27819814516481));
#406=CARTESIAN_POINT('Ctrl Pts',(-12.3465903771971,18.6928739401805,-6.59633293515892));
#407=CARTESIAN_POINT('Ctrl Pts',(-11.6148115594837,19.249932048956,-7.32811175287232));
#408=CARTESIAN_POINT('Ctrl Pts',(-11.2880481583403,19.5187741043045,-7.78842002386564));
#409=CARTESIAN_POINT('Ctrl Pts',(-10.8385186737785,19.8947583808517,-8.83735322754275));
#410=CARTESIAN_POINT('Ctrl Pts',(-10.717,20.,-9.42719242554401));
#411=CARTESIAN_POINT('Ctrl Pts',(-10.717,20.,-10.572807574456));
#412=CARTESIAN_POINT('Ctrl Pts',(-10.8385186737785,19.8947583808517,-11.1626467724573));
#413=CARTESIAN_POINT('Ctrl Pts',(-11.2880481583403,19.5187741043045,-12.2115799761344));
#414=CARTESIAN_POINT('Ctrl Pts',(-11.6148115594837,19.249932048956,-12.6718882471277));
#415=CARTESIAN_POINT('Ctrl Pts',(-12.3465903771971,18.6928739401805,-13.4036670648411));
#416=CARTESIAN_POINT('Ctrl Pts',(-12.8084825565355,18.3576880905309,-13.7218018548352));
#417=CARTESIAN_POINT('Ctrl Pts',(-13.5773844277393,17.9382988845813,-14.0494282652219));
#418=CARTESIAN_POINT('Ctrl Pts',(-13.8465076905073,17.8135132865671,-14.1346812915743));
#419=CARTESIAN_POINT('Ctrl Pts',(-14.4070567370684,17.6338421448938,-14.2513975823888));
#420=CARTESIAN_POINT('Ctrl Pts',(-14.6987571645327,17.5799052308176,-14.283));
#421=CARTESIAN_POINT('Ctrl Pts',(-15.3012428354673,17.5799052308176,-14.283));
#422=CARTESIAN_POINT('Ctrl Pts',(-15.5929432629316,17.6338421448938,-14.2513975823888));
#423=CARTESIAN_POINT('Ctrl Pts',(-16.1534923094927,17.8135132865671,-14.1346812915743));
#424=CARTESIAN_POINT('Ctrl Pts',(-16.4226155722607,17.9382988845813,-14.0494282652219));
#425=CARTESIAN_POINT('Ctrl Pts',(-17.1915174434646,18.3576880905309,-13.7218018548352));
#426=CARTESIAN_POINT('Ctrl Pts',(-17.6534096228029,18.6928739401805,-13.4036670648411));
#427=CARTESIAN_POINT('Ctrl Pts',(-18.3851884405163,19.249932048956,-12.6718882471277));
#428=CARTESIAN_POINT('Ctrl Pts',(-18.7119518416597,19.5187741043045,-12.2115799761344));
#429=CARTESIAN_POINT('Ctrl Pts',(-19.1614813262215,19.8947583808517,-11.1626467724573));
#430=CARTESIAN_POINT('Ctrl Pts',(-19.283,20.,-10.572807574456));
#431=CARTESIAN_POINT('Ctrl Pts',(-19.283,20.,-9.42719242554401));
#432=CARTESIAN_POINT('Ctrl Pts',(-19.1614813262215,19.8947583808517,-8.83735322754275));
#433=CARTESIAN_POINT('Ctrl Pts',(-18.7119518416597,19.5187741043045,-7.78842002386563));
#434=CARTESIAN_POINT('Ctrl Pts',(-18.3851884405163,19.249932048956,-7.32811175287232));
#435=CARTESIAN_POINT('Ctrl Pts',(-17.6534096228029,18.6928739401805,-6.59633293515892));
#436=CARTESIAN_POINT('Ctrl Pts',(-17.1915174434646,18.3576880905309,-6.2781981451648));
#437=CARTESIAN_POINT('Ctrl Pts',(-16.4226155722607,17.9382988845813,-5.95057173477812));
#438=CARTESIAN_POINT('Ctrl Pts',(-16.1534923094927,17.8135132865671,-5.86531870842574));
#439=CARTESIAN_POINT('Ctrl Pts',(-15.5929432629316,17.6338421448938,-5.74860241761125));
#440=CARTESIAN_POINT('Ctrl Pts',(-15.3012428354673,17.5799052308176,-5.71700000000001));
#441=CARTESIAN_POINT('Ctrl Pts',(-15.,17.5799052308176,-5.71700000000001));
#442=CARTESIAN_POINT('',(-15.,30.,-5.71700000000001));
#443=CARTESIAN_POINT('Origin',(-15.,30.,-10.));
#444=CARTESIAN_POINT('Origin',(-30.,25.5,0.));
#445=CARTESIAN_POINT('',(-32.6,25.5,0.));
#446=CARTESIAN_POINT('Origin',(-30.,25.5,0.));
#447=CARTESIAN_POINT('',(-32.6,25.5,-20.));
#448=CARTESIAN_POINT('Origin',(-30.,25.5,-20.));
#449=CARTESIAN_POINT('Origin',(-30.,4.5,0.));
#450=CARTESIAN_POINT('',(-32.6,4.5,0.));
#451=CARTESIAN_POINT('Origin',(-30.,4.5,0.));
#452=CARTESIAN_POINT('',(-32.6,4.5,-20.));
#453=CARTESIAN_POINT('Origin',(-30.,4.5,-20.));
#454=CARTESIAN_POINT('Origin',(-60.,15.,-10.));
#455=CARTESIAN_POINT('',(-50.5,15.,-4.2775));
#456=CARTESIAN_POINT('Origin',(-50.5,15.,-10.));
#457=CARTESIAN_POINT('',(-60.,15.,-4.2775));
#458=CARTESIAN_POINT('Origin',(-60.,15.,-10.));
#459=CARTESIAN_POINT('Origin',(-50.5,15.,-10.));
#460=CARTESIAN_POINT('',(-50.0658782027526,15.,-5.));
#461=CARTESIAN_POINT('Origin',(-50.0658782027526,15.,-10.));
#462=CARTESIAN_POINT('Origin',(0.,15.,-10.));
#463=CARTESIAN_POINT('',(-9.5,15.,-15.7225));
#464=CARTESIAN_POINT('Origin',(-9.5,15.,-10.));
#465=CARTESIAN_POINT('',(-1.76287906737262E-16,15.,-15.7225));
#466=CARTESIAN_POINT('Origin',(-1.76287906737262E-16,15.,-10.));
#467=CARTESIAN_POINT('Origin',(-9.5,15.,-10.));
#468=CARTESIAN_POINT('',(-9.93412179724741,15.,-15.));
#469=CARTESIAN_POINT('Origin',(-9.93412179724741,15.,-10.));
#470=CARTESIAN_POINT('Origin',(-60.,15.,-10.));
#471=CARTESIAN_POINT('Origin',(-60.,0.,0.));
#472=CARTESIAN_POINT('',(0.,30.,0.));
#473=CARTESIAN_POINT('',(0.,0.,0.));
#474=CARTESIAN_POINT('',(0.,0.,0.));
#475=CARTESIAN_POINT('',(-60.,30.,0.));
#476=CARTESIAN_POINT('',(-60.,30.,0.));
#477=CARTESIAN_POINT('',(-60.,0.,0.));
#478=CARTESIAN_POINT('',(-60.,0.,0.));
#479=CARTESIAN_POINT('',(-60.,0.,0.));
#480=CARTESIAN_POINT('Origin',(-60.,30.,0.));
#481=CARTESIAN_POINT('',(0.,30.,-20.));
#482=CARTESIAN_POINT('',(0.,30.,0.));
#483=CARTESIAN_POINT('',(-60.,30.,-20.));
#484=CARTESIAN_POINT('',(-60.,30.,-20.));
#485=CARTESIAN_POINT('',(-60.,30.,0.));
#486=CARTESIAN_POINT('Origin',(-60.,0.,-20.));
#487=CARTESIAN_POINT('',(0.,0.,-20.));
#488=CARTESIAN_POINT('',(0.,0.,-20.));
#489=CARTESIAN_POINT('',(-60.,0.,-20.));
#490=CARTESIAN_POINT('',(-60.,0.,-20.));
#491=CARTESIAN_POINT('',(-60.,0.,-20.));
#492=CARTESIAN_POINT('Origin',(-60.,0.,0.));
#493=CARTESIAN_POINT('',(0.,0.,0.));
#494=CARTESIAN_POINT('',(-60.,0.,0.));
#495=CARTESIAN_POINT('Origin',(-60.,0.,0.));
#496=CARTESIAN_POINT('Origin',(0.,0.,0.));
#497=UNCERTAINTY_MEASURE_WITH_UNIT(LENGTH_MEASURE(0.01),#501,
'DISTANCE_ACCURACY_VALUE',
'Maximum model space distance between geometric entities at asserted c
onnectivities');
#498=UNCERTAINTY_MEASURE_WITH_UNIT(LENGTH_MEASURE(1.E-6),#501,
'DISTANCE_ACCURACY_VALUE',
'Maximum model space distance between geometric entities at asserted c
onnectivities');
#499=(
GEOMETRIC_REPRESENTATION_CONTEXT(3)
GLOBAL_UNCERTAINTY_ASSIGNED_CONTEXT((#497))
GLOBAL_UNIT_ASSIGNED_CONTEXT((#501,#503,#502))
REPRESENTATION_CONTEXT('','3D')
);
#500=(
GEOMETRIC_REPRESENTATION_CONTEXT(3)
GLOBAL_UNCERTAINTY_ASSIGNED_CONTEXT((#498))
GLOBAL_UNIT_ASSIGNED_CONTEXT((#501,#12,#502))
REPRESENTATION_CONTEXT('','3D')
);
#501=(
LENGTH_UNIT()
NAMED_UNIT(*)
SI_UNIT(.MILLI.,.METRE.)
);
#502=(
NAMED_UNIT(*)
SI_UNIT($,.STERADIAN.)
SOLID_ANGLE_UNIT()
);
#503=(
NAMED_UNIT(*)
PLANE_ANGLE_UNIT()
SI_UNIT($,.RADIAN.)
);
#504=SHAPE_DEFINITION_REPRESENTATION(#505,#506);
#505=PRODUCT_DEFINITION_SHAPE('',$,#508);
#506=SHAPE_REPRESENTATION('',(#255),#499);
#507=PRODUCT_DEFINITION_CONTEXT('part definition',#512,'design');
#508=PRODUCT_DEFINITION('RLE2 1418A','RLE2 1418A',#509,#507);
#509=PRODUCT_DEFINITION_FORMATION('',$,#514);
#510=PRODUCT_RELATED_PRODUCT_CATEGORY('RLE2 1418A','RLE2 1418A',(#514));
#511=APPLICATION_PROTOCOL_DEFINITION('international standard',
'automotive_design',2009,#512);
#512=APPLICATION_CONTEXT(
'Core Data for Automotive Mechanical Design Process');
#513=PRODUCT_CONTEXT('part definition',#512,'mechanical');
#514=PRODUCT('RLE2 1418A','RLE2 1418A',$,(#513));
#515=PRESENTATION_STYLE_ASSIGNMENT((#516));
#516=SURFACE_STYLE_USAGE(.BOTH.,#517);
#517=SURFACE_SIDE_STYLE($,(#518));
#518=SURFACE_STYLE_FILL_AREA(#519);
#519=FILL_AREA_STYLE($,(#520));
#520=FILL_AREA_STYLE_COLOUR($,#521);
#521=COLOUR_RGB('',0.749019607843137,0.749019607843137,0.749019607843137);
ENDSEC;
END-ISO-10303-21;
