ISO-10303-21;
HEADER;
/* Generated by software containing ST-Developer
 * from STEP Tools, Inc. (www.steptools.com) 
 */

FILE_DESCRIPTION(
/* description */ (''),
/* implementation_level */ '2;1');

FILE_NAME(
/* name */ 'H:\\cad\\neutral\\3d\\73997\\dr_34_hd.stp',
/* time_stamp */ '2022-06-09T09:03:28+02:00',
/* author */ ('leitheu\X\DFer'),
/* organization */ (''),
/* preprocessor_version */ 'ST-DEVELOPER v16.13',
/* originating_system */ 'Autodesk Inventor LT',
/* authorisation */ '');

FILE_SCHEMA (('AUTOMOTIVE_DESIGN { 1 0 10303 214 3 1 1 }'));
ENDSEC;

DATA;
#10=MECHANICAL_DESIGN_GEOMETRIC_PRESENTATION_REPRESENTATION('',(#13,#14),
#284);
#11=SHAPE_REPRESENTATION_RELATIONSHIP('SRR','None',#291,#12);
#12=ADVANCED_BREP_SHAPE_REPRESENTATION('',(#15,#16),#283);
#13=STYLED_ITEM('',(#300),#15);
#14=STYLED_ITEM('',(#300),#16);
#15=MANIFOLD_SOLID_BREP('Volumenk\X\F6rper1',#149);
#16=MANIFOLD_SOLID_BREP('Volumenk\X\F6rper2',#150);
#17=PLANE('',#181);
#18=PLANE('',#183);
#19=PLANE('',#189);
#20=PLANE('',#191);
#21=CONICAL_SURFACE('',#173,13.598999999967,1.09639644400286);
#22=CONICAL_SURFACE('',#175,14.1909999999669,1.09639644400287);
#23=FACE_BOUND('',#48,.T.);
#24=FACE_BOUND('',#50,.T.);
#25=FACE_BOUND('',#52,.T.);
#26=FACE_BOUND('',#54,.T.);
#27=FACE_BOUND('',#56,.T.);
#28=FACE_BOUND('',#58,.T.);
#29=FACE_BOUND('',#60,.T.);
#30=FACE_BOUND('',#62,.T.);
#31=FACE_BOUND('',#64,.T.);
#32=FACE_BOUND('',#66,.T.);
#33=FACE_BOUND('',#68,.T.);
#34=FACE_BOUND('',#70,.T.);
#35=FACE_OUTER_BOUND('',#47,.T.);
#36=FACE_OUTER_BOUND('',#49,.T.);
#37=FACE_OUTER_BOUND('',#51,.T.);
#38=FACE_OUTER_BOUND('',#53,.T.);
#39=FACE_OUTER_BOUND('',#55,.T.);
#40=FACE_OUTER_BOUND('',#57,.T.);
#41=FACE_OUTER_BOUND('',#59,.T.);
#42=FACE_OUTER_BOUND('',#61,.T.);
#43=FACE_OUTER_BOUND('',#63,.T.);
#44=FACE_OUTER_BOUND('',#65,.T.);
#45=FACE_OUTER_BOUND('',#67,.T.);
#46=FACE_OUTER_BOUND('',#69,.T.);
#47=EDGE_LOOP('',(#107));
#48=EDGE_LOOP('',(#108));
#49=EDGE_LOOP('',(#109));
#50=EDGE_LOOP('',(#110));
#51=EDGE_LOOP('',(#111));
#52=EDGE_LOOP('',(#112));
#53=EDGE_LOOP('',(#113));
#54=EDGE_LOOP('',(#114));
#55=EDGE_LOOP('',(#115));
#56=EDGE_LOOP('',(#116));
#57=EDGE_LOOP('',(#117));
#58=EDGE_LOOP('',(#118));
#59=EDGE_LOOP('',(#119));
#60=EDGE_LOOP('',(#120));
#61=EDGE_LOOP('',(#121));
#62=EDGE_LOOP('',(#122));
#63=EDGE_LOOP('',(#123));
#64=EDGE_LOOP('',(#124));
#65=EDGE_LOOP('',(#125));
#66=EDGE_LOOP('',(#126));
#67=EDGE_LOOP('',(#127));
#68=EDGE_LOOP('',(#128));
#69=EDGE_LOOP('',(#129));
#70=EDGE_LOOP('',(#130));
#71=CIRCLE('',#171,14.2649999999812);
#72=CIRCLE('',#172,14.2649999999813);
#73=CIRCLE('',#174,13.5249999999815);
#74=CIRCLE('',#176,13.5249999999814);
#75=CIRCLE('',#178,13.5249999999815);
#76=CIRCLE('',#180,13.5249999999814);
#77=CIRCLE('',#182,12.0649999999819);
#78=CIRCLE('',#184,12.0649999999817);
#79=CIRCLE('',#187,17.4649999999803);
#80=CIRCLE('',#188,17.4649999999804);
#81=CIRCLE('',#190,14.2649999999812);
#82=CIRCLE('',#192,14.2649999999811);
#83=VERTEX_POINT('',#246);
#84=VERTEX_POINT('',#248);
#85=VERTEX_POINT('',#251);
#86=VERTEX_POINT('',#254);
#87=VERTEX_POINT('',#257);
#88=VERTEX_POINT('',#260);
#89=VERTEX_POINT('',#263);
#90=VERTEX_POINT('',#266);
#91=VERTEX_POINT('',#270);
#92=VERTEX_POINT('',#272);
#93=VERTEX_POINT('',#275);
#94=VERTEX_POINT('',#278);
#95=EDGE_CURVE('',#83,#83,#71,.T.);
#96=EDGE_CURVE('',#84,#84,#72,.T.);
#97=EDGE_CURVE('',#85,#85,#73,.T.);
#98=EDGE_CURVE('',#86,#86,#74,.F.);
#99=EDGE_CURVE('',#87,#87,#75,.F.);
#100=EDGE_CURVE('',#88,#88,#76,.T.);
#101=EDGE_CURVE('',#89,#89,#77,.T.);
#102=EDGE_CURVE('',#90,#90,#78,.T.);
#103=EDGE_CURVE('',#91,#91,#79,.T.);
#104=EDGE_CURVE('',#92,#92,#80,.T.);
#105=EDGE_CURVE('',#93,#93,#81,.T.);
#106=EDGE_CURVE('',#94,#94,#82,.T.);
#107=ORIENTED_EDGE('',*,*,#95,.T.);
#108=ORIENTED_EDGE('',*,*,#96,.F.);
#109=ORIENTED_EDGE('',*,*,#96,.T.);
#110=ORIENTED_EDGE('',*,*,#97,.F.);
#111=ORIENTED_EDGE('',*,*,#98,.F.);
#112=ORIENTED_EDGE('',*,*,#95,.F.);
#113=ORIENTED_EDGE('',*,*,#97,.T.);
#114=ORIENTED_EDGE('',*,*,#99,.T.);
#115=ORIENTED_EDGE('',*,*,#100,.T.);
#116=ORIENTED_EDGE('',*,*,#98,.T.);
#117=ORIENTED_EDGE('',*,*,#99,.F.);
#118=ORIENTED_EDGE('',*,*,#101,.F.);
#119=ORIENTED_EDGE('',*,*,#100,.F.);
#120=ORIENTED_EDGE('',*,*,#102,.F.);
#121=ORIENTED_EDGE('',*,*,#101,.T.);
#122=ORIENTED_EDGE('',*,*,#102,.T.);
#123=ORIENTED_EDGE('',*,*,#103,.T.);
#124=ORIENTED_EDGE('',*,*,#104,.F.);
#125=ORIENTED_EDGE('',*,*,#104,.T.);
#126=ORIENTED_EDGE('',*,*,#105,.F.);
#127=ORIENTED_EDGE('',*,*,#103,.F.);
#128=ORIENTED_EDGE('',*,*,#106,.F.);
#129=ORIENTED_EDGE('',*,*,#105,.T.);
#130=ORIENTED_EDGE('',*,*,#106,.T.);
#131=CYLINDRICAL_SURFACE('',#170,14.2649999999527);
#132=CYLINDRICAL_SURFACE('',#177,13.5249999999523);
#133=CYLINDRICAL_SURFACE('',#179,13.5249999999523);
#134=CYLINDRICAL_SURFACE('',#185,12.0650000000274);
#135=CYLINDRICAL_SURFACE('',#186,17.4649999999539);
#136=CYLINDRICAL_SURFACE('',#193,14.2650000000282);
#137=ADVANCED_FACE('',(#35,#23),#131,.T.);
#138=ADVANCED_FACE('',(#36,#24),#21,.T.);
#139=ADVANCED_FACE('',(#37,#25),#22,.T.);
#140=ADVANCED_FACE('',(#38,#26),#132,.F.);
#141=ADVANCED_FACE('',(#39,#27),#133,.F.);
#142=ADVANCED_FACE('',(#40,#28),#17,.T.);
#143=ADVANCED_FACE('',(#41,#29),#18,.T.);
#144=ADVANCED_FACE('',(#42,#30),#134,.F.);
#145=ADVANCED_FACE('',(#43,#31),#135,.T.);
#146=ADVANCED_FACE('',(#44,#32),#19,.T.);
#147=ADVANCED_FACE('',(#45,#33),#20,.T.);
#148=ADVANCED_FACE('',(#46,#34),#136,.F.);
#149=CLOSED_SHELL('',(#137,#138,#139,#140,#141,#142,#143,#144));
#150=CLOSED_SHELL('',(#145,#146,#147,#148));
#151=DERIVED_UNIT_ELEMENT(#153,0.);
#152=DERIVED_UNIT_ELEMENT(#286,0.);
#153=(
MASS_UNIT()
NAMED_UNIT(*)
SI_UNIT($,.GRAM.)
);
#154=DERIVED_UNIT((#151,#152));
#155=MEASURE_REPRESENTATION_ITEM('density measure',
POSITIVE_RATIO_MEASURE(1.),#154);
#156=PROPERTY_DEFINITION_REPRESENTATION(#161,#158);
#157=PROPERTY_DEFINITION_REPRESENTATION(#162,#159);
#158=REPRESENTATION('material name',(#160),#283);
#159=REPRESENTATION('density',(#155),#283);
#160=DESCRIPTIVE_REPRESENTATION_ITEM('Generisch','Generisch');
#161=PROPERTY_DEFINITION('material property','material name',#293);
#162=PROPERTY_DEFINITION('material property','density of part',#293);
#163=DATE_TIME_ROLE('creation_date');
#164=APPLIED_DATE_AND_TIME_ASSIGNMENT(#165,#163,(#293));
#165=DATE_AND_TIME(#166,#167);
#166=CALENDAR_DATE(2021,12,4);
#167=LOCAL_TIME(2,57,51.,#168);
#168=COORDINATED_UNIVERSAL_TIME_OFFSET(0,0,.BEHIND.);
#169=AXIS2_PLACEMENT_3D('placement',#244,#194,#195);
#170=AXIS2_PLACEMENT_3D('',#245,#196,#197);
#171=AXIS2_PLACEMENT_3D('',#247,#198,#199);
#172=AXIS2_PLACEMENT_3D('',#249,#200,#201);
#173=AXIS2_PLACEMENT_3D('',#250,#202,#203);
#174=AXIS2_PLACEMENT_3D('',#252,#204,#205);
#175=AXIS2_PLACEMENT_3D('',#253,#206,#207);
#176=AXIS2_PLACEMENT_3D('',#255,#208,#209);
#177=AXIS2_PLACEMENT_3D('',#256,#210,#211);
#178=AXIS2_PLACEMENT_3D('',#258,#212,#213);
#179=AXIS2_PLACEMENT_3D('',#259,#214,#215);
#180=AXIS2_PLACEMENT_3D('',#261,#216,#217);
#181=AXIS2_PLACEMENT_3D('',#262,#218,#219);
#182=AXIS2_PLACEMENT_3D('',#264,#220,#221);
#183=AXIS2_PLACEMENT_3D('',#265,#222,#223);
#184=AXIS2_PLACEMENT_3D('',#267,#224,#225);
#185=AXIS2_PLACEMENT_3D('',#268,#226,#227);
#186=AXIS2_PLACEMENT_3D('',#269,#228,#229);
#187=AXIS2_PLACEMENT_3D('',#271,#230,#231);
#188=AXIS2_PLACEMENT_3D('',#273,#232,#233);
#189=AXIS2_PLACEMENT_3D('',#274,#234,#235);
#190=AXIS2_PLACEMENT_3D('',#276,#236,#237);
#191=AXIS2_PLACEMENT_3D('',#277,#238,#239);
#192=AXIS2_PLACEMENT_3D('',#279,#240,#241);
#193=AXIS2_PLACEMENT_3D('',#280,#242,#243);
#194=DIRECTION('axis',(0.,0.,1.));
#195=DIRECTION('refdir',(1.,0.,0.));
#196=DIRECTION('center_axis',(0.,0.,-1.));
#197=DIRECTION('ref_axis',(1.,-1.75114041739564E-15,0.));
#198=DIRECTION('center_axis',(2.34868163626702E-17,2.34868163627196E-17,
-1.));
#199=DIRECTION('ref_axis',(-1.,-7.82837595037285E-13,-1.94571157488016E-17));
#200=DIRECTION('center_axis',(2.34868163626703E-17,-2.34868163627198E-17,
-1.));
#201=DIRECTION('ref_axis',(-1.31249919995115E-12,-1.,1.94571157488015E-17));
#202=DIRECTION('center_axis',(1.20319875211651E-13,-1.1058768790464E-13,
1.));
#203=DIRECTION('ref_axis',(0.989443450481681,-0.144919489023753,-1.350760237144E-13));
#204=DIRECTION('center_axis',(0.,0.,-1.));
#205=DIRECTION('ref_axis',(-1.368549964257E-12,-1.,0.));
#206=DIRECTION('center_axis',(1.18464700930583E-13,-1.092361645713E-13,
-1.));
#207=DIRECTION('ref_axis',(0.989443450481684,-0.144919489023731,1.33044571601622E-13));
#208=DIRECTION('center_axis',(0.,0.,-1.));
#209=DIRECTION('ref_axis',(-1.,-8.41594200368584E-13,0.));
#210=DIRECTION('center_axis',(0.,0.,-1.));
#211=DIRECTION('ref_axis',(1.,1.8469514272942E-15,0.));
#212=DIRECTION('center_axis',(-3.09648276722267E-18,3.09648276722954E-18,
-1.));
#213=DIRECTION('ref_axis',(-1.368549964257E-12,-1.,-2.56521031568086E-18));
#214=DIRECTION('center_axis',(0.,0.,-1.));
#215=DIRECTION('ref_axis',(1.,1.8469514272942E-15,0.));
#216=DIRECTION('center_axis',(6.19296553444529E-18,6.19296553445902E-18,
-1.));
#217=DIRECTION('ref_axis',(-1.,-8.41594200368584E-13,-6.4130257892022E-18));
#218=DIRECTION('center_axis',(0.,0.,-1.));
#219=DIRECTION('ref_axis',(-1.,0.,0.));
#220=DIRECTION('center_axis',(0.,0.,-1.));
#221=DIRECTION('ref_axis',(-1.,-9.84431489221531E-13,0.));
#222=DIRECTION('center_axis',(0.,0.,1.));
#223=DIRECTION('ref_axis',(1.,0.,0.));
#224=DIRECTION('center_axis',(-1.01663918250043E-18,2.45445391601403E-18,
1.));
#225=DIRECTION('ref_axis',(1.,-9.70858518137212E-13,1.43781473350969E-18));
#226=DIRECTION('center_axis',(0.,0.,-1.));
#227=DIRECTION('ref_axis',(0.,-1.,0.));
#228=DIRECTION('center_axis',(0.,0.,-1.));
#229=DIRECTION('ref_axis',(1.,0.,0.));
#230=DIRECTION('center_axis',(1.91834775501568E-17,1.91834775501897E-17,
-1.));
#231=DIRECTION('ref_axis',(-1.,-5.87022875517469E-13,-1.58921131495335E-17));
#232=DIRECTION('center_axis',(1.9183477550157E-17,-1.918347755019E-17,-1.));
#233=DIRECTION('ref_axis',(-1.12287314669343E-12,-1.,1.58921131495334E-17));
#234=DIRECTION('center_axis',(0.,0.,-1.));
#235=DIRECTION('ref_axis',(-1.,0.,0.));
#236=DIRECTION('center_axis',(-2.34868163994499E-17,-2.34868163994992E-17,
-1.));
#237=DIRECTION('ref_axis',(-1.,-7.84977877769653E-13,1.94571157488016E-17));
#238=DIRECTION('center_axis',(0.,0.,1.));
#239=DIRECTION('ref_axis',(1.,0.,0.));
#240=DIRECTION('center_axis',(0.,0.,1.));
#241=DIRECTION('ref_axis',(1.,-7.78479201109557E-13,0.));
#242=DIRECTION('center_axis',(0.,0.,-1.));
#243=DIRECTION('ref_axis',(0.,-1.,0.));
#244=CARTESIAN_POINT('',(0.,0.,0.));
#245=CARTESIAN_POINT('Origin',(280.916066701047,-4.64344781102997,0.));
#246=CARTESIAN_POINT('',(280.916066701,9.62155218897,1.25));
#247=CARTESIAN_POINT('Origin',(280.916066700981,-4.64344781101883,1.25));
#248=CARTESIAN_POINT('',(280.916066701,9.62155218897,-1.25));
#249=CARTESIAN_POINT('Origin',(280.916066701019,-4.6434478110187,-1.25));
#250=CARTESIAN_POINT('Origin',(280.916066701034,-4.64344781102339,-1.59199999999816));
#251=CARTESIAN_POINT('',(280.916066701,8.88155218897,-1.63));
#252=CARTESIAN_POINT('Origin',(280.916066701019,-4.6434478110185,-1.63));
#253=CARTESIAN_POINT('Origin',(280.916066701034,-4.64344781102341,1.28799999999811));
#254=CARTESIAN_POINT('',(280.916066701,8.88155218897,1.63));
#255=CARTESIAN_POINT('Origin',(280.916066700981,-4.64344781101862,1.63));
#256=CARTESIAN_POINT('Origin',(280.916066701048,-4.64344781103002,-0.89));
#257=CARTESIAN_POINT('',(280.916066701,8.88155218897,-0.15));
#258=CARTESIAN_POINT('Origin',(280.916066701019,-4.6434478110185,-0.15));
#259=CARTESIAN_POINT('Origin',(280.916066701048,-4.64344781103002,0.89));
#260=CARTESIAN_POINT('',(280.916066701,8.88155218897,0.15));
#261=CARTESIAN_POINT('Origin',(280.916066700981,-4.64344781101862,0.15));
#262=CARTESIAN_POINT('Origin',(294.441066701,-18.168447811,-0.15));
#263=CARTESIAN_POINT('',(280.916066701,7.42155218897,-0.15));
#264=CARTESIAN_POINT('Origin',(280.916066700982,-4.64344781101812,-0.15));
#265=CARTESIAN_POINT('Origin',(267.391066701,-18.168447811,0.15));
#266=CARTESIAN_POINT('',(280.916066701,7.42155218897,0.15));
#267=CARTESIAN_POINT('Origin',(280.916066701018,-4.64344781101829,0.15));
#268=CARTESIAN_POINT('Origin',(280.916066701,-4.64344781097265,0.));
#269=CARTESIAN_POINT('Origin',(280.916066701046,-4.64344781103,-1.38777878078145E-16));
#270=CARTESIAN_POINT('',(280.916066701,12.821552189,1.25));
#271=CARTESIAN_POINT('Origin',(280.91606670098,-4.64344781101975,1.25));
#272=CARTESIAN_POINT('',(280.916066701,12.821552189,-1.25));
#273=CARTESIAN_POINT('Origin',(280.91606670102,-4.64344781101956,-1.25));
#274=CARTESIAN_POINT('Origin',(298.381066701,-22.108447811,-1.25));
#275=CARTESIAN_POINT('',(280.916066701,9.62155218897,-1.25));
#276=CARTESIAN_POINT('Origin',(280.916066700981,-4.6434478110188,-1.25));
#277=CARTESIAN_POINT('Origin',(263.451066701,-22.108447811,1.25));
#278=CARTESIAN_POINT('',(280.916066701,9.62155218897,1.25));
#279=CARTESIAN_POINT('Origin',(280.916066701019,-4.64344781101889,1.25));
#280=CARTESIAN_POINT('Origin',(280.916066701,-4.64344781097182,0.));
#281=UNCERTAINTY_MEASURE_WITH_UNIT(LENGTH_MEASURE(0.01),#285,
'DISTANCE_ACCURACY_VALUE',
'Maximum model space distance between geometric entities at asserted c
onnectivities');
#282=UNCERTAINTY_MEASURE_WITH_UNIT(LENGTH_MEASURE(0.01),#285,
'DISTANCE_ACCURACY_VALUE',
'Maximum model space distance between geometric entities at asserted c
onnectivities');
#283=(
GEOMETRIC_REPRESENTATION_CONTEXT(3)
GLOBAL_UNCERTAINTY_ASSIGNED_CONTEXT((#281))
GLOBAL_UNIT_ASSIGNED_CONTEXT((#285,#288,#287))
REPRESENTATION_CONTEXT('','3D')
);
#284=(
GEOMETRIC_REPRESENTATION_CONTEXT(3)
GLOBAL_UNCERTAINTY_ASSIGNED_CONTEXT((#282))
GLOBAL_UNIT_ASSIGNED_CONTEXT((#285,#288,#287))
REPRESENTATION_CONTEXT('','3D')
);
#285=(
LENGTH_UNIT()
NAMED_UNIT(*)
SI_UNIT(.MILLI.,.METRE.)
);
#286=(
LENGTH_UNIT()
NAMED_UNIT(*)
SI_UNIT(.CENTI.,.METRE.)
);
#287=(
NAMED_UNIT(*)
SI_UNIT($,.STERADIAN.)
SOLID_ANGLE_UNIT()
);
#288=(
NAMED_UNIT(*)
PLANE_ANGLE_UNIT()
SI_UNIT($,.RADIAN.)
);
#289=SHAPE_DEFINITION_REPRESENTATION(#290,#291);
#290=PRODUCT_DEFINITION_SHAPE('',$,#293);
#291=SHAPE_REPRESENTATION('',(#169),#283);
#292=PRODUCT_DEFINITION_CONTEXT('part definition',#297,'design');
#293=PRODUCT_DEFINITION('BS-827A_Bonded Seal_3D_(to E023)',
'BS-827A_Bonded Seal_3D_(to E023)',#294,#292);
#294=PRODUCT_DEFINITION_FORMATION(' ',$,#299);
#295=PRODUCT_RELATED_PRODUCT_CATEGORY(
'BS-827A_Bonded Seal_3D_(to E023)','BS-827A_Bonded Seal_3D_(to E023)',(#299));
#296=APPLICATION_PROTOCOL_DEFINITION('international standard',
'automotive_design',2009,#297);
#297=APPLICATION_CONTEXT(
'Core Data for Automotive Mechanical Design Process');
#298=PRODUCT_CONTEXT('part definition',#297,'mechanical');
#299=PRODUCT('BS-827A_Bonded Seal_3D_(to E023)',
'BS-827A_Bonded Seal_3D_(to E023)',$,(#298));
#300=PRESENTATION_STYLE_ASSIGNMENT((#301));
#301=SURFACE_STYLE_USAGE(.BOTH.,#302);
#302=SURFACE_SIDE_STYLE('',(#303));
#303=SURFACE_STYLE_FILL_AREA(#304);
#304=FILL_AREA_STYLE('',(#305));
#305=FILL_AREA_STYLE_COLOUR('',#306);
#306=COLOUR_RGB('',0.749019607843137,0.749019607843137,0.749019607843137);
ENDSEC;
END-ISO-10303-21;
