ISO-10303-21;
HEADER;
/* Generated by software containing ST-Developer
 * from STEP Tools, Inc. (www.steptools.com) 
 */

FILE_DESCRIPTION(
/* description */ (''),
/* implementation_level */ '2;1');

FILE_NAME(
/* name */ 'H:\\cad\\neutral\\3d\\72420\\dr_14_p.stp',
/* time_stamp */ '2021-09-27T14:05:25+02:00',
/* author */ ('leitheu\X\DFer'),
/* organization */ (''),
/* preprocessor_version */ 'ST-DEVELOPER v16.13',
/* originating_system */ 'Autodesk Inventor LT',
/* authorisation */ '');

FILE_SCHEMA (('AUTOMOTIVE_DESIGN { 1 0 10303 214 3 1 1 }'));
ENDSEC;

DATA;
#10=MECHANICAL_DESIGN_GEOMETRIC_PRESENTATION_REPRESENTATION('',(#13),#315);
#11=SHAPE_REPRESENTATION_RELATIONSHIP('SRR','None',#322,#12);
#12=ADVANCED_BREP_SHAPE_REPRESENTATION('',(#14),#314);
#13=STYLED_ITEM('',(#331),#14);
#14=MANIFOLD_SOLID_BREP('Volumenk\X\F6rper1',#174);
#15=PLANE('',#205);
#16=PLANE('',#206);
#17=PLANE('',#207);
#18=PLANE('',#208);
#19=PLANE('',#209);
#20=PLANE('',#210);
#21=PLANE('',#211);
#22=PLANE('',#212);
#23=ELLIPSE('',#200,7.563288526384,6.54999999999998);
#24=ELLIPSE('',#202,7.56328852638404,6.54999999999998);
#25=ELLIPSE('',#204,7.56328852638311,6.5499999999996);
#26=LINE('',#278,#38);
#27=LINE('',#282,#39);
#28=LINE('',#286,#40);
#29=LINE('',#290,#41);
#30=LINE('',#294,#42);
#31=LINE('',#297,#43);
#32=LINE('',#299,#44);
#33=LINE('',#300,#45);
#34=LINE('',#301,#46);
#35=LINE('',#304,#47);
#36=LINE('',#307,#48);
#37=LINE('',#309,#49);
#38=VECTOR('',#227,1000.);
#39=VECTOR('',#230,1000.);
#40=VECTOR('',#233,1000.);
#41=VECTOR('',#236,1000.);
#42=VECTOR('',#239,1000.);
#43=VECTOR('',#242,1000.);
#44=VECTOR('',#245,1000.);
#45=VECTOR('',#246,1000.);
#46=VECTOR('',#247,1000.);
#47=VECTOR('',#252,1000.);
#48=VECTOR('',#257,1000.);
#49=VECTOR('',#260,1000.);
#50=FACE_BOUND('',#65,.T.);
#51=FACE_BOUND('',#67,.T.);
#52=FACE_BOUND('',#69,.T.);
#53=FACE_BOUND('',#71,.T.);
#54=FACE_OUTER_BOUND('',#64,.T.);
#55=FACE_OUTER_BOUND('',#66,.T.);
#56=FACE_OUTER_BOUND('',#68,.T.);
#57=FACE_OUTER_BOUND('',#70,.T.);
#58=FACE_OUTER_BOUND('',#72,.T.);
#59=FACE_OUTER_BOUND('',#73,.T.);
#60=FACE_OUTER_BOUND('',#74,.T.);
#61=FACE_OUTER_BOUND('',#75,.T.);
#62=FACE_OUTER_BOUND('',#76,.T.);
#63=FACE_OUTER_BOUND('',#77,.T.);
#64=EDGE_LOOP('',(#120));
#65=EDGE_LOOP('',(#121));
#66=EDGE_LOOP('',(#122));
#67=EDGE_LOOP('',(#123,#124,#125,#126,#127,#128,#129,#130,#131,#132,#133,
#134));
#68=EDGE_LOOP('',(#135));
#69=EDGE_LOOP('',(#136,#137,#138,#139,#140,#141));
#70=EDGE_LOOP('',(#142));
#71=EDGE_LOOP('',(#143));
#72=EDGE_LOOP('',(#144,#145,#146,#147));
#73=EDGE_LOOP('',(#148,#149));
#74=EDGE_LOOP('',(#150,#151,#152,#153));
#75=EDGE_LOOP('',(#154,#155,#156,#157));
#76=EDGE_LOOP('',(#158,#159));
#77=EDGE_LOOP('',(#160,#161));
#78=CIRCLE('',#195,8.95);
#79=CIRCLE('',#196,8.95);
#80=CIRCLE('',#198,6.55);
#81=CIRCLE('',#199,6.55);
#82=CIRCLE('',#201,6.55);
#83=CIRCLE('',#203,6.55);
#84=VERTEX_POINT('',#267);
#85=VERTEX_POINT('',#269);
#86=VERTEX_POINT('',#272);
#87=VERTEX_POINT('',#274);
#88=VERTEX_POINT('',#275);
#89=VERTEX_POINT('',#277);
#90=VERTEX_POINT('',#279);
#91=VERTEX_POINT('',#281);
#92=VERTEX_POINT('',#283);
#93=VERTEX_POINT('',#285);
#94=VERTEX_POINT('',#287);
#95=VERTEX_POINT('',#289);
#96=VERTEX_POINT('',#291);
#97=VERTEX_POINT('',#293);
#98=VERTEX_POINT('',#295);
#99=EDGE_CURVE('',#84,#84,#78,.T.);
#100=EDGE_CURVE('',#85,#85,#79,.T.);
#101=EDGE_CURVE('',#86,#86,#80,.T.);
#102=EDGE_CURVE('',#87,#88,#81,.T.);
#103=EDGE_CURVE('',#89,#88,#26,.T.);
#104=EDGE_CURVE('',#89,#90,#23,.T.);
#105=EDGE_CURVE('',#90,#91,#27,.T.);
#106=EDGE_CURVE('',#91,#92,#82,.T.);
#107=EDGE_CURVE('',#93,#92,#28,.T.);
#108=EDGE_CURVE('',#93,#94,#24,.T.);
#109=EDGE_CURVE('',#94,#95,#29,.T.);
#110=EDGE_CURVE('',#95,#96,#83,.T.);
#111=EDGE_CURVE('',#97,#96,#30,.T.);
#112=EDGE_CURVE('',#97,#98,#25,.T.);
#113=EDGE_CURVE('',#98,#87,#31,.T.);
#114=EDGE_CURVE('',#96,#87,#32,.T.);
#115=EDGE_CURVE('',#92,#95,#33,.T.);
#116=EDGE_CURVE('',#88,#91,#34,.T.);
#117=EDGE_CURVE('',#98,#97,#35,.T.);
#118=EDGE_CURVE('',#90,#89,#36,.T.);
#119=EDGE_CURVE('',#94,#93,#37,.T.);
#120=ORIENTED_EDGE('',*,*,#99,.T.);
#121=ORIENTED_EDGE('',*,*,#100,.F.);
#122=ORIENTED_EDGE('',*,*,#101,.F.);
#123=ORIENTED_EDGE('',*,*,#102,.T.);
#124=ORIENTED_EDGE('',*,*,#103,.F.);
#125=ORIENTED_EDGE('',*,*,#104,.T.);
#126=ORIENTED_EDGE('',*,*,#105,.T.);
#127=ORIENTED_EDGE('',*,*,#106,.T.);
#128=ORIENTED_EDGE('',*,*,#107,.F.);
#129=ORIENTED_EDGE('',*,*,#108,.T.);
#130=ORIENTED_EDGE('',*,*,#109,.T.);
#131=ORIENTED_EDGE('',*,*,#110,.T.);
#132=ORIENTED_EDGE('',*,*,#111,.F.);
#133=ORIENTED_EDGE('',*,*,#112,.T.);
#134=ORIENTED_EDGE('',*,*,#113,.T.);
#135=ORIENTED_EDGE('',*,*,#100,.T.);
#136=ORIENTED_EDGE('',*,*,#102,.F.);
#137=ORIENTED_EDGE('',*,*,#114,.F.);
#138=ORIENTED_EDGE('',*,*,#110,.F.);
#139=ORIENTED_EDGE('',*,*,#115,.F.);
#140=ORIENTED_EDGE('',*,*,#106,.F.);
#141=ORIENTED_EDGE('',*,*,#116,.F.);
#142=ORIENTED_EDGE('',*,*,#99,.F.);
#143=ORIENTED_EDGE('',*,*,#101,.T.);
#144=ORIENTED_EDGE('',*,*,#113,.F.);
#145=ORIENTED_EDGE('',*,*,#117,.T.);
#146=ORIENTED_EDGE('',*,*,#111,.T.);
#147=ORIENTED_EDGE('',*,*,#114,.T.);
#148=ORIENTED_EDGE('',*,*,#112,.F.);
#149=ORIENTED_EDGE('',*,*,#117,.F.);
#150=ORIENTED_EDGE('',*,*,#105,.F.);
#151=ORIENTED_EDGE('',*,*,#118,.T.);
#152=ORIENTED_EDGE('',*,*,#103,.T.);
#153=ORIENTED_EDGE('',*,*,#116,.T.);
#154=ORIENTED_EDGE('',*,*,#109,.F.);
#155=ORIENTED_EDGE('',*,*,#119,.T.);
#156=ORIENTED_EDGE('',*,*,#107,.T.);
#157=ORIENTED_EDGE('',*,*,#115,.T.);
#158=ORIENTED_EDGE('',*,*,#104,.F.);
#159=ORIENTED_EDGE('',*,*,#118,.F.);
#160=ORIENTED_EDGE('',*,*,#108,.F.);
#161=ORIENTED_EDGE('',*,*,#119,.F.);
#162=CYLINDRICAL_SURFACE('',#194,8.95);
#163=CYLINDRICAL_SURFACE('',#197,6.55);
#164=ADVANCED_FACE('',(#54,#50),#162,.T.);
#165=ADVANCED_FACE('',(#55,#51),#163,.F.);
#166=ADVANCED_FACE('',(#56,#52),#15,.T.);
#167=ADVANCED_FACE('',(#57,#53),#16,.T.);
#168=ADVANCED_FACE('',(#58),#17,.F.);
#169=ADVANCED_FACE('',(#59),#18,.F.);
#170=ADVANCED_FACE('',(#60),#19,.F.);
#171=ADVANCED_FACE('',(#61),#20,.F.);
#172=ADVANCED_FACE('',(#62),#21,.F.);
#173=ADVANCED_FACE('',(#63),#22,.F.);
#174=CLOSED_SHELL('',(#164,#165,#166,#167,#168,#169,#170,#171,#172,#173));
#175=DERIVED_UNIT_ELEMENT(#177,0.);
#176=DERIVED_UNIT_ELEMENT(#317,0.);
#177=(
MASS_UNIT()
NAMED_UNIT(*)
SI_UNIT($,.GRAM.)
);
#178=DERIVED_UNIT((#175,#176));
#179=MEASURE_REPRESENTATION_ITEM('density measure',
POSITIVE_RATIO_MEASURE(1.),#178);
#180=PROPERTY_DEFINITION_REPRESENTATION(#185,#182);
#181=PROPERTY_DEFINITION_REPRESENTATION(#186,#183);
#182=REPRESENTATION('material name',(#184),#314);
#183=REPRESENTATION('density',(#179),#314);
#184=DESCRIPTIVE_REPRESENTATION_ITEM('Generisch','Generisch');
#185=PROPERTY_DEFINITION('material property','material name',#324);
#186=PROPERTY_DEFINITION('material property','density of part',#324);
#187=DATE_TIME_ROLE('creation_date');
#188=APPLIED_DATE_AND_TIME_ASSIGNMENT(#189,#187,(#324));
#189=DATE_AND_TIME(#190,#191);
#190=CALENDAR_DATE(2018,10,4);
#191=LOCAL_TIME(9,25,38.,#192);
#192=COORDINATED_UNIVERSAL_TIME_OFFSET(0,0,.BEHIND.);
#193=AXIS2_PLACEMENT_3D('placement',#265,#213,#214);
#194=AXIS2_PLACEMENT_3D('',#266,#215,#216);
#195=AXIS2_PLACEMENT_3D('',#268,#217,#218);
#196=AXIS2_PLACEMENT_3D('',#270,#219,#220);
#197=AXIS2_PLACEMENT_3D('',#271,#221,#222);
#198=AXIS2_PLACEMENT_3D('',#273,#223,#224);
#199=AXIS2_PLACEMENT_3D('',#276,#225,#226);
#200=AXIS2_PLACEMENT_3D('',#280,#228,#229);
#201=AXIS2_PLACEMENT_3D('',#284,#231,#232);
#202=AXIS2_PLACEMENT_3D('',#288,#234,#235);
#203=AXIS2_PLACEMENT_3D('',#292,#237,#238);
#204=AXIS2_PLACEMENT_3D('',#296,#240,#241);
#205=AXIS2_PLACEMENT_3D('',#298,#243,#244);
#206=AXIS2_PLACEMENT_3D('',#302,#248,#249);
#207=AXIS2_PLACEMENT_3D('',#303,#250,#251);
#208=AXIS2_PLACEMENT_3D('',#305,#253,#254);
#209=AXIS2_PLACEMENT_3D('',#306,#255,#256);
#210=AXIS2_PLACEMENT_3D('',#308,#258,#259);
#211=AXIS2_PLACEMENT_3D('',#310,#261,#262);
#212=AXIS2_PLACEMENT_3D('',#311,#263,#264);
#213=DIRECTION('axis',(0.,0.,1.));
#214=DIRECTION('refdir',(1.,0.,0.));
#215=DIRECTION('center_axis',(0.,-1.,0.));
#216=DIRECTION('ref_axis',(0.,0.,-1.));
#217=DIRECTION('center_axis',(0.,-1.,0.));
#218=DIRECTION('ref_axis',(0.,0.,-1.));
#219=DIRECTION('center_axis',(0.,-1.,0.));
#220=DIRECTION('ref_axis',(0.,0.,-1.));
#221=DIRECTION('center_axis',(0.,-1.,0.));
#222=DIRECTION('ref_axis',(0.,0.,-1.));
#223=DIRECTION('center_axis',(0.,-1.,0.));
#224=DIRECTION('ref_axis',(0.,0.,-1.));
#225=DIRECTION('center_axis',(0.,-1.,0.));
#226=DIRECTION('ref_axis',(0.,0.,-1.));
#227=DIRECTION('',(0.,-1.,0.));
#228=DIRECTION('center_axis',(0.25,-0.866025403784441,-0.433012701892215));
#229=DIRECTION('ref_axis',(0.433012701892211,0.499999999999996,-0.750000000000007));
#230=DIRECTION('',(0.,-1.,0.));
#231=DIRECTION('center_axis',(0.,-1.,0.));
#232=DIRECTION('ref_axis',(0.,0.,-1.));
#233=DIRECTION('',(0.,-1.,0.));
#234=DIRECTION('center_axis',(0.249999999999996,-0.866025403784439,0.433012701892221));
#235=DIRECTION('ref_axis',(-0.433012701892195,-0.499999999999999,-0.750000000000014));
#236=DIRECTION('',(0.,-1.,0.));
#237=DIRECTION('center_axis',(0.,-1.,0.));
#238=DIRECTION('ref_axis',(0.,0.,-1.));
#239=DIRECTION('',(0.,-1.,0.));
#240=DIRECTION('center_axis',(-0.499999999999997,-0.86602540378444,0.));
#241=DIRECTION('ref_axis',(0.86602540378444,-0.499999999999997,0.));
#242=DIRECTION('',(0.,-1.,0.));
#243=DIRECTION('center_axis',(0.,-1.,0.));
#244=DIRECTION('ref_axis',(0.,0.,-1.));
#245=DIRECTION('',(0.,0.,-1.));
#246=DIRECTION('',(-0.866025403784443,0.,0.499999999999992));
#247=DIRECTION('',(0.866025403784436,0.,0.500000000000004));
#248=DIRECTION('center_axis',(0.,1.,0.));
#249=DIRECTION('ref_axis',(0.,0.,1.));
#250=DIRECTION('center_axis',(-1.,0.,0.));
#251=DIRECTION('ref_axis',(0.,0.,1.));
#252=DIRECTION('',(0.,0.,1.));
#253=DIRECTION('center_axis',(-0.499999999999997,-0.86602540378444,0.));
#254=DIRECTION('ref_axis',(0.866025403784441,-0.499999999999997,0.));
#255=DIRECTION('center_axis',(0.500000000000004,0.,-0.866025403784436));
#256=DIRECTION('ref_axis',(-0.866025403784436,0.,-0.500000000000004));
#257=DIRECTION('',(-0.866025403784436,0.,-0.500000000000004));
#258=DIRECTION('center_axis',(0.499999999999992,0.,0.866025403784443));
#259=DIRECTION('ref_axis',(0.866025403784443,0.,-0.499999999999992));
#260=DIRECTION('',(0.866025403784443,0.,-0.499999999999992));
#261=DIRECTION('center_axis',(0.25,-0.86602540378444,-0.433012701892216));
#262=DIRECTION('ref_axis',(0.,0.447213595499954,-0.894427190999918));
#263=DIRECTION('center_axis',(0.249999999999995,-0.866025403784439,0.433012701892221));
#264=DIRECTION('ref_axis',(-1.38777878078145E-17,-0.447213595499959,-0.894427190999915));
#265=CARTESIAN_POINT('',(0.,0.,0.));
#266=CARTESIAN_POINT('Origin',(0.,-2.41515310536392,0.));
#267=CARTESIAN_POINT('',(0.,1.8,-8.95));
#268=CARTESIAN_POINT('Origin',(0.,1.8,0.));
#269=CARTESIAN_POINT('',(0.,0.,-8.95));
#270=CARTESIAN_POINT('Origin',(0.,0.,0.));
#271=CARTESIAN_POINT('Origin',(0.,-2.41515310536392,0.));
#272=CARTESIAN_POINT('',(0.,1.8,-6.55));
#273=CARTESIAN_POINT('Origin',(0.,1.8,0.));
#274=CARTESIAN_POINT('',(-5.85,0.,-2.94618397253125));
#275=CARTESIAN_POINT('',(0.373529835565419,0.,-6.53934059840459));
#276=CARTESIAN_POINT('Origin',(0.,0.,0.));
#277=CARTESIAN_POINT('',(0.373529835565414,0.195854811567264,-6.53934059840459));
#278=CARTESIAN_POINT('',(0.373529835565414,0.6,-6.53934059840459));
#279=CARTESIAN_POINT('',(5.47647016443463,0.195854811567264,-3.59315662587332));
#280=CARTESIAN_POINT('Origin',(5.64825963778048E-14,-3.18164426319198,-4.66293670342566E-14));
#281=CARTESIAN_POINT('',(5.47647016443463,0.,-3.59315662587332));
#282=CARTESIAN_POINT('',(5.47647016443463,0.6,-3.59315662587332));
#283=CARTESIAN_POINT('',(5.47647016443458,0.,3.59315662587339));
#284=CARTESIAN_POINT('Origin',(0.,0.,0.));
#285=CARTESIAN_POINT('',(5.47647016443458,0.19585481156726,3.59315662587339));
#286=CARTESIAN_POINT('',(5.47647016443458,0.6,3.59315662587339));
#287=CARTESIAN_POINT('',(0.373529835565323,0.19585481156726,6.53934059840459));
#288=CARTESIAN_POINT('Origin',(5.32907051820075E-14,-3.18164426319202,2.22044604925031E-14));
#289=CARTESIAN_POINT('',(0.373529835565323,0.,6.53934059840459));
#290=CARTESIAN_POINT('',(0.373529835565323,0.6,6.53934059840459));
#291=CARTESIAN_POINT('',(-5.85,0.,2.94618397253125));
#292=CARTESIAN_POINT('Origin',(0.,0.,0.));
#293=CARTESIAN_POINT('',(-5.85,0.195854811567264,2.94618397253125));
#294=CARTESIAN_POINT('',(-5.85,0.6,2.94618397253125));
#295=CARTESIAN_POINT('',(-5.85,0.195854811567264,-2.94618397253125));
#296=CARTESIAN_POINT('Origin',(-8.39328606616618E-13,-3.18164426319153,
0.));
#297=CARTESIAN_POINT('',(-5.85,0.6,-2.94618397253125));
#298=CARTESIAN_POINT('Origin',(6.55,0.,0.));
#299=CARTESIAN_POINT('',(-5.85,0.,-2.94618397253125));
#300=CARTESIAN_POINT('',(0.373529835565323,0.,6.53934059840459));
#301=CARTESIAN_POINT('',(5.47647016443463,0.,-3.59315662587332));
#302=CARTESIAN_POINT('Origin',(6.55,1.8,0.));
#303=CARTESIAN_POINT('Origin',(-5.85,0.6,-2.94618397253125));
#304=CARTESIAN_POINT('',(-5.85,0.195854811567264,-2.94618397253125));
#305=CARTESIAN_POINT('Origin',(-6.55,0.6,0.));
#306=CARTESIAN_POINT('Origin',(5.47647016443463,0.6,-3.59315662587332));
#307=CARTESIAN_POINT('',(5.47647016443463,0.195854811567264,-3.59315662587332));
#308=CARTESIAN_POINT('Origin',(0.373529835565323,0.6,6.53934059840459));
#309=CARTESIAN_POINT('',(0.373529835565323,0.19585481156726,6.53934059840459));
#310=CARTESIAN_POINT('Origin',(3.27500000000003,0.6,-5.67246639478806));
#311=CARTESIAN_POINT('Origin',(3.27499999999995,0.6,5.67246639478811));
#312=UNCERTAINTY_MEASURE_WITH_UNIT(LENGTH_MEASURE(0.01),#316,
'DISTANCE_ACCURACY_VALUE',
'Maximum model space distance between geometric entities at asserted c
onnectivities');
#313=UNCERTAINTY_MEASURE_WITH_UNIT(LENGTH_MEASURE(0.01),#316,
'DISTANCE_ACCURACY_VALUE',
'Maximum model space distance between geometric entities at asserted c
onnectivities');
#314=(
GEOMETRIC_REPRESENTATION_CONTEXT(3)
GLOBAL_UNCERTAINTY_ASSIGNED_CONTEXT((#312))
GLOBAL_UNIT_ASSIGNED_CONTEXT((#316,#319,#318))
REPRESENTATION_CONTEXT('','3D')
);
#315=(
GEOMETRIC_REPRESENTATION_CONTEXT(3)
GLOBAL_UNCERTAINTY_ASSIGNED_CONTEXT((#313))
GLOBAL_UNIT_ASSIGNED_CONTEXT((#316,#319,#318))
REPRESENTATION_CONTEXT('','3D')
);
#316=(
LENGTH_UNIT()
NAMED_UNIT(*)
SI_UNIT(.MILLI.,.METRE.)
);
#317=(
LENGTH_UNIT()
NAMED_UNIT(*)
SI_UNIT(.CENTI.,.METRE.)
);
#318=(
NAMED_UNIT(*)
SI_UNIT($,.STERADIAN.)
SOLID_ANGLE_UNIT()
);
#319=(
NAMED_UNIT(*)
PLANE_ANGLE_UNIT()
SI_UNIT($,.RADIAN.)
);
#320=SHAPE_DEFINITION_REPRESENTATION(#321,#322);
#321=PRODUCT_DEFINITION_SHAPE('',$,#324);
#322=SHAPE_REPRESENTATION('',(#193),#314);
#323=PRODUCT_DEFINITION_CONTEXT('part definition',#328,'design');
#324=PRODUCT_DEFINITION('05850002','05850002',#325,#323);
#325=PRODUCT_DEFINITION_FORMATION('',$,#330);
#326=PRODUCT_RELATED_PRODUCT_CATEGORY('05850002','05850002',(#330));
#327=APPLICATION_PROTOCOL_DEFINITION('international standard',
'automotive_design',2009,#328);
#328=APPLICATION_CONTEXT(
'Core Data for Automotive Mechanical Design Process');
#329=PRODUCT_CONTEXT('part definition',#328,'mechanical');
#330=PRODUCT('05850002','05850002',$,(#329));
#331=PRESENTATION_STYLE_ASSIGNMENT((#332));
#332=SURFACE_STYLE_USAGE(.BOTH.,#333);
#333=SURFACE_SIDE_STYLE('',(#334));
#334=SURFACE_STYLE_FILL_AREA(#335);
#335=FILL_AREA_STYLE('',(#336));
#336=FILL_AREA_STYLE_COLOUR('',#337);
#337=COLOUR_RGB('',0.250980392156863,0.250980392156863,0.250980392156863);
ENDSEC;
END-ISO-10303-21;
