ISO-10303-21;
HEADER;
/* Generated by software containing ST-Developer
 * from STEP Tools, Inc. (www.steptools.com) 
 */
/* OPTION: using custom schema-name function */

FILE_DESCRIPTION(
/* description */ ('VariCAD 2016-1.06 AP-214'),
/* implementation_level */ '2;1');

FILE_NAME(
/* name */ 'bhlfp.stp',
/* time_stamp */ '2016-06-16T10:42:12+02:00',
/* author */ (''),
/* organization */ (''),
/* preprocessor_version */ 'ST-DEVELOPER v14',
/* originating_system */ 'VariCAD 2016-1.06; kernel version (20130303)',

/* authorisation */ '');

FILE_SCHEMA (('AUTOMOTIVE_DESIGN'));
ENDSEC;

DATA;
#10=MECHANICAL_DESIGN_GEOMETRIC_PRESENTATION_REPRESENTATION('',(#186),#602);
#11=CONTEXT_DEPENDENT_SHAPE_REPRESENTATION(#13,#333);
#12=NEXT_ASSEMBLY_USAGE_OCCURRENCE('','','',#334,#335,'');
#13=(
REPRESENTATION_RELATIONSHIP('','',#348,#349)
REPRESENTATION_RELATIONSHIP_WITH_TRANSFORMATION(#14)
SHAPE_REPRESENTATION_RELATIONSHIP()
);
#14=ITEM_DEFINED_TRANSFORMATION('','',#383,#351);
#15=SHAPE_REPRESENTATION_RELATIONSHIP('','',#349,#16);
#16=ADVANCED_BREP_SHAPE_REPRESENTATION('',(#18,#382),#601);
#17=CLOSED_SHELL('',(#154,#155,#156,#157,#158,#159,#160,#161,#162,#163,#164,
#165,#166,#167,#168,#169));
#18=MANIFOLD_SOLID_BREP('',#17);
#19=FACE_BOUND('',#59,.F.);
#20=FACE_BOUND('',#60,.F.);
#21=FACE_BOUND('',#63,.F.);
#22=FACE_BOUND('',#64,.F.);
#23=FACE_BOUND('',#66,.F.);
#24=FACE_BOUND('',#68,.F.);
#25=PLANE('',#371);
#26=PLANE('',#372);
#27=PLANE('',#377);
#28=PLANE('',#378);
#29=PLANE('',#379);
#30=PLANE('',#380);
#31=PLANE('',#381);
#32=FACE_OUTER_BOUND('',#48,.F.);
#33=FACE_OUTER_BOUND('',#49,.F.);
#34=FACE_OUTER_BOUND('',#50,.F.);
#35=FACE_OUTER_BOUND('',#51,.F.);
#36=FACE_OUTER_BOUND('',#52,.F.);
#37=FACE_OUTER_BOUND('',#53,.F.);
#38=FACE_OUTER_BOUND('',#54,.F.);
#39=FACE_OUTER_BOUND('',#55,.F.);
#40=FACE_OUTER_BOUND('',#56,.F.);
#41=FACE_OUTER_BOUND('',#57,.F.);
#42=FACE_OUTER_BOUND('',#58,.F.);
#43=FACE_OUTER_BOUND('',#61,.F.);
#44=FACE_OUTER_BOUND('',#62,.F.);
#45=FACE_OUTER_BOUND('',#65,.F.);
#46=FACE_OUTER_BOUND('',#67,.F.);
#47=FACE_OUTER_BOUND('',#69,.F.);
#48=EDGE_LOOP('',(#70,#71,#72,#73));
#49=EDGE_LOOP('',(#74,#75,#76,#77));
#50=EDGE_LOOP('',(#78,#79,#80,#81));
#51=EDGE_LOOP('',(#82,#83,#84,#85));
#52=EDGE_LOOP('',(#86,#87,#88,#89));
#53=EDGE_LOOP('',(#90,#91,#92,#93,#94,#95,#96,#97));
#54=EDGE_LOOP('',(#98,#99,#100,#101,#102,#103,#104,#105));
#55=EDGE_LOOP('',(#106,#107,#108,#109));
#56=EDGE_LOOP('',(#110,#111,#112,#113));
#57=EDGE_LOOP('',(#114,#115,#116,#117));
#58=EDGE_LOOP('',(#118,#119,#120,#121));
#59=EDGE_LOOP('',(#122,#123));
#60=EDGE_LOOP('',(#124,#125));
#61=EDGE_LOOP('',(#126,#127,#128,#129));
#62=EDGE_LOOP('',(#130,#131,#132,#133));
#63=EDGE_LOOP('',(#134,#135));
#64=EDGE_LOOP('',(#136,#137));
#65=EDGE_LOOP('',(#138,#139,#140,#141));
#66=EDGE_LOOP('',(#142,#143));
#67=EDGE_LOOP('',(#144,#145,#146,#147));
#68=EDGE_LOOP('',(#148,#149));
#69=EDGE_LOOP('',(#150,#151,#152,#153));
#70=ORIENTED_EDGE('',*,*,#269,.F.);
#71=ORIENTED_EDGE('',*,*,#294,.F.);
#72=ORIENTED_EDGE('',*,*,#279,.F.);
#73=ORIENTED_EDGE('',*,*,#293,.F.);
#74=ORIENTED_EDGE('',*,*,#271,.F.);
#75=ORIENTED_EDGE('',*,*,#292,.F.);
#76=ORIENTED_EDGE('',*,*,#281,.F.);
#77=ORIENTED_EDGE('',*,*,#291,.F.);
#78=ORIENTED_EDGE('',*,*,#257,.F.);
#79=ORIENTED_EDGE('',*,*,#290,.F.);
#80=ORIENTED_EDGE('',*,*,#264,.F.);
#81=ORIENTED_EDGE('',*,*,#289,.F.);
#82=ORIENTED_EDGE('',*,*,#270,.F.);
#83=ORIENTED_EDGE('',*,*,#293,.T.);
#84=ORIENTED_EDGE('',*,*,#280,.F.);
#85=ORIENTED_EDGE('',*,*,#294,.T.);
#86=ORIENTED_EDGE('',*,*,#272,.F.);
#87=ORIENTED_EDGE('',*,*,#291,.T.);
#88=ORIENTED_EDGE('',*,*,#282,.F.);
#89=ORIENTED_EDGE('',*,*,#292,.T.);
#90=ORIENTED_EDGE('',*,*,#283,.F.);
#91=ORIENTED_EDGE('',*,*,#276,.F.);
#92=ORIENTED_EDGE('',*,*,#273,.F.);
#93=ORIENTED_EDGE('',*,*,#268,.F.);
#94=ORIENTED_EDGE('',*,*,#285,.T.);
#95=ORIENTED_EDGE('',*,*,#254,.F.);
#96=ORIENTED_EDGE('',*,*,#287,.F.);
#97=ORIENTED_EDGE('',*,*,#260,.F.);
#98=ORIENTED_EDGE('',*,*,#288,.T.);
#99=ORIENTED_EDGE('',*,*,#256,.F.);
#100=ORIENTED_EDGE('',*,*,#286,.T.);
#101=ORIENTED_EDGE('',*,*,#266,.T.);
#102=ORIENTED_EDGE('',*,*,#275,.F.);
#103=ORIENTED_EDGE('',*,*,#278,.F.);
#104=ORIENTED_EDGE('',*,*,#284,.F.);
#105=ORIENTED_EDGE('',*,*,#262,.F.);
#106=ORIENTED_EDGE('',*,*,#287,.T.);
#107=ORIENTED_EDGE('',*,*,#253,.T.);
#108=ORIENTED_EDGE('',*,*,#288,.F.);
#109=ORIENTED_EDGE('',*,*,#261,.T.);
#110=ORIENTED_EDGE('',*,*,#258,.F.);
#111=ORIENTED_EDGE('',*,*,#289,.T.);
#112=ORIENTED_EDGE('',*,*,#263,.F.);
#113=ORIENTED_EDGE('',*,*,#290,.T.);
#114=ORIENTED_EDGE('',*,*,#255,.T.);
#115=ORIENTED_EDGE('',*,*,#285,.F.);
#116=ORIENTED_EDGE('',*,*,#267,.F.);
#117=ORIENTED_EDGE('',*,*,#286,.F.);
#118=ORIENTED_EDGE('',*,*,#283,.T.);
#119=ORIENTED_EDGE('',*,*,#259,.F.);
#120=ORIENTED_EDGE('',*,*,#284,.T.);
#121=ORIENTED_EDGE('',*,*,#277,.T.);
#122=ORIENTED_EDGE('',*,*,#280,.T.);
#123=ORIENTED_EDGE('',*,*,#279,.T.);
#124=ORIENTED_EDGE('',*,*,#282,.T.);
#125=ORIENTED_EDGE('',*,*,#281,.T.);
#126=ORIENTED_EDGE('',*,*,#274,.T.);
#127=ORIENTED_EDGE('',*,*,#276,.T.);
#128=ORIENTED_EDGE('',*,*,#277,.F.);
#129=ORIENTED_EDGE('',*,*,#278,.T.);
#130=ORIENTED_EDGE('',*,*,#265,.T.);
#131=ORIENTED_EDGE('',*,*,#273,.T.);
#132=ORIENTED_EDGE('',*,*,#274,.F.);
#133=ORIENTED_EDGE('',*,*,#275,.T.);
#134=ORIENTED_EDGE('',*,*,#270,.T.);
#135=ORIENTED_EDGE('',*,*,#269,.T.);
#136=ORIENTED_EDGE('',*,*,#272,.T.);
#137=ORIENTED_EDGE('',*,*,#271,.T.);
#138=ORIENTED_EDGE('',*,*,#265,.F.);
#139=ORIENTED_EDGE('',*,*,#266,.F.);
#140=ORIENTED_EDGE('',*,*,#267,.T.);
#141=ORIENTED_EDGE('',*,*,#268,.T.);
#142=ORIENTED_EDGE('',*,*,#264,.T.);
#143=ORIENTED_EDGE('',*,*,#263,.T.);
#144=ORIENTED_EDGE('',*,*,#259,.T.);
#145=ORIENTED_EDGE('',*,*,#260,.T.);
#146=ORIENTED_EDGE('',*,*,#261,.F.);
#147=ORIENTED_EDGE('',*,*,#262,.T.);
#148=ORIENTED_EDGE('',*,*,#258,.T.);
#149=ORIENTED_EDGE('',*,*,#257,.T.);
#150=ORIENTED_EDGE('',*,*,#253,.F.);
#151=ORIENTED_EDGE('',*,*,#254,.T.);
#152=ORIENTED_EDGE('',*,*,#255,.F.);
#153=ORIENTED_EDGE('',*,*,#256,.T.);
#154=ADVANCED_FACE('',(#32),#170,.F.);
#155=ADVANCED_FACE('',(#33),#171,.F.);
#156=ADVANCED_FACE('',(#34),#172,.F.);
#157=ADVANCED_FACE('',(#35),#173,.F.);
#158=ADVANCED_FACE('',(#36),#174,.F.);
#159=ADVANCED_FACE('',(#37),#25,.T.);
#160=ADVANCED_FACE('',(#38),#26,.T.);
#161=ADVANCED_FACE('',(#39),#175,.T.);
#162=ADVANCED_FACE('',(#40),#176,.F.);
#163=ADVANCED_FACE('',(#41),#177,.T.);
#164=ADVANCED_FACE('',(#42),#178,.F.);
#165=ADVANCED_FACE('',(#19,#20,#43),#27,.T.);
#166=ADVANCED_FACE('',(#44),#28,.T.);
#167=ADVANCED_FACE('',(#21,#22,#45),#29,.T.);
#168=ADVANCED_FACE('',(#23,#46),#30,.T.);
#169=ADVANCED_FACE('',(#24,#47),#31,.T.);
#170=CYLINDRICAL_SURFACE('',#366,3.5);
#171=CYLINDRICAL_SURFACE('',#367,3.5);
#172=CYLINDRICAL_SURFACE('',#368,10.5);
#173=CYLINDRICAL_SURFACE('',#369,3.5);
#174=CYLINDRICAL_SURFACE('',#370,3.5);
#175=CYLINDRICAL_SURFACE('',#373,17.5);
#176=CYLINDRICAL_SURFACE('',#374,10.5);
#177=CYLINDRICAL_SURFACE('',#375,6.);
#178=CYLINDRICAL_SURFACE('',#376,3.);
#179=PRESENTATION_STYLE_ASSIGNMENT((#180));
#180=SURFACE_STYLE_USAGE(.BOTH.,#181);
#181=SURFACE_SIDE_STYLE('',(#182));
#182=SURFACE_STYLE_FILL_AREA(#183);
#183=FILL_AREA_STYLE('',(#184));
#184=FILL_AREA_STYLE_COLOUR('',#185);
#185=COLOUR_RGB('Colour',0.686274509803922,0.776470588235294,0.862745098039216);
#186=STYLED_ITEM('',(#179),#18);
#187=B_SPLINE_CURVE_WITH_KNOTS('',3,(#536,#537,#538,#539,#540,#541,#542,
#543,#544),.UNSPECIFIED.,.F.,.F.,(4,1,1,1,1,1,4),(0.,0.194503622730048,0.333401857513025,
0.499981021698575,0.666565170911362,0.805474228796764,1.),.UNSPECIFIED.);
#188=B_SPLINE_CURVE_WITH_KNOTS('',3,(#545,#546,#547,#548,#549,#550,#551,
#552,#553),.UNSPECIFIED.,.F.,.F.,(4,1,1,1,1,1,4),(0.,0.194525771203234,0.333434829088637,
0.500018978301426,0.666598142486976,0.805496377269952,1.),.UNSPECIFIED.);
#189=B_SPLINE_CURVE_WITH_KNOTS('',3,(#554,#555,#556,#557,#558,#559,#560,
#561,#562,#563),.UNSPECIFIED.,.F.,.F.,(4,1,1,1,1,1,1,4),(0.,0.1665125122299,
0.285555759954483,0.428490748419486,0.571503912987198,0.714439631690479,
0.833484170212996,1.),.UNSPECIFIED.);
#190=B_SPLINE_CURVE_WITH_KNOTS('',3,(#564,#565,#566,#567,#568,#569,#570,
#571,#572,#573),.UNSPECIFIED.,.F.,.F.,(4,1,1,1,1,1,1,4),(0.,0.166515829787007,
0.285560368309523,0.428496087012803,0.571509251580515,0.714444240045517,
0.833487487770101,1.),.UNSPECIFIED.);
#191=LINE('',#507,#215);
#192=LINE('',#508,#216);
#193=LINE('',#509,#217);
#194=LINE('',#512,#218);
#195=LINE('',#513,#219);
#196=LINE('',#515,#220);
#197=LINE('',#518,#221);
#198=LINE('',#519,#222);
#199=LINE('',#520,#223);
#200=LINE('',#521,#224);
#201=LINE('',#526,#225);
#202=LINE('',#527,#226);
#203=LINE('',#528,#227);
#204=LINE('',#529,#228);
#205=LINE('',#530,#229);
#206=LINE('',#531,#230);
#207=LINE('',#574,#231);
#208=LINE('',#575,#232);
#209=LINE('',#576,#233);
#210=LINE('',#577,#234);
#211=LINE('',#578,#235);
#212=LINE('',#579,#236);
#213=LINE('',#580,#237);
#214=LINE('',#581,#238);
#215=VECTOR('',#390,128.695620548542);
#216=VECTOR('',#391,58.87487574082);
#217=VECTOR('',#392,128.695620548542);
#218=VECTOR('',#397,58.87487574082);
#219=VECTOR('',#398,128.695620548542);
#220=VECTOR('',#401,128.695620548542);
#221=VECTOR('',#406,60.);
#222=VECTOR('',#407,29.);
#223=VECTOR('',#408,60.);
#224=VECTOR('',#409,29.);
#225=VECTOR('',#418,3.0131576522665);
#226=VECTOR('',#419,59.43743787041);
#227=VECTOR('',#420,3.0131576522665);
#228=VECTOR('',#421,29.);
#229=VECTOR('',#422,59.43743787041);
#230=VECTOR('',#423,29.);
#231=VECTOR('',#432,3.00000000000001);
#232=VECTOR('',#433,3.00000000000001);
#233=VECTOR('',#434,3.00000000000001);
#234=VECTOR('',#435,3.00000000000001);
#235=VECTOR('',#436,3.);
#236=VECTOR('',#437,3.);
#237=VECTOR('',#438,3.);
#238=VECTOR('',#439,3.);
#239=CIRCLE('',#352,17.5);
#240=CIRCLE('',#353,10.5);
#241=CIRCLE('',#354,10.5);
#242=CIRCLE('',#355,17.5);
#243=CIRCLE('',#356,10.5);
#244=CIRCLE('',#357,10.5);
#245=CIRCLE('',#358,3.5);
#246=CIRCLE('',#359,3.5);
#247=CIRCLE('',#360,3.5);
#248=CIRCLE('',#361,3.5);
#249=CIRCLE('',#362,3.5);
#250=CIRCLE('',#363,3.5);
#251=CIRCLE('',#364,3.5);
#252=CIRCLE('',#365,3.5);
#253=EDGE_CURVE('',#322,#321,#239,.T.);
#254=EDGE_CURVE('',#322,#320,#191,.T.);
#255=EDGE_CURVE('',#319,#320,#192,.T.);
#256=EDGE_CURVE('',#319,#321,#193,.T.);
#257=EDGE_CURVE('',#318,#317,#240,.T.);
#258=EDGE_CURVE('',#317,#318,#241,.T.);
#259=EDGE_CURVE('',#316,#315,#194,.T.);
#260=EDGE_CURVE('',#315,#314,#195,.T.);
#261=EDGE_CURVE('',#313,#314,#242,.T.);
#262=EDGE_CURVE('',#313,#316,#196,.T.);
#263=EDGE_CURVE('',#312,#311,#243,.T.);
#264=EDGE_CURVE('',#311,#312,#244,.T.);
#265=EDGE_CURVE('',#310,#309,#197,.T.);
#266=EDGE_CURVE('',#308,#310,#198,.T.);
#267=EDGE_CURVE('',#308,#307,#199,.T.);
#268=EDGE_CURVE('',#307,#309,#200,.T.);
#269=EDGE_CURVE('',#306,#305,#245,.T.);
#270=EDGE_CURVE('',#305,#306,#246,.T.);
#271=EDGE_CURVE('',#304,#303,#247,.T.);
#272=EDGE_CURVE('',#303,#304,#248,.T.);
#273=EDGE_CURVE('',#309,#302,#201,.T.);
#274=EDGE_CURVE('',#301,#302,#202,.T.);
#275=EDGE_CURVE('',#301,#310,#203,.T.);
#276=EDGE_CURVE('',#302,#300,#204,.T.);
#277=EDGE_CURVE('',#299,#300,#205,.T.);
#278=EDGE_CURVE('',#299,#301,#206,.T.);
#279=EDGE_CURVE('',#298,#297,#249,.T.);
#280=EDGE_CURVE('',#297,#298,#250,.T.);
#281=EDGE_CURVE('',#296,#295,#251,.T.);
#282=EDGE_CURVE('',#295,#296,#252,.T.);
#283=EDGE_CURVE('',#300,#315,#187,.T.);
#284=EDGE_CURVE('',#316,#299,#188,.T.);
#285=EDGE_CURVE('',#307,#320,#189,.T.);
#286=EDGE_CURVE('',#319,#308,#190,.T.);
#287=EDGE_CURVE('',#314,#322,#207,.T.);
#288=EDGE_CURVE('',#313,#321,#208,.T.);
#289=EDGE_CURVE('',#317,#311,#209,.T.);
#290=EDGE_CURVE('',#312,#318,#210,.T.);
#291=EDGE_CURVE('',#303,#296,#211,.T.);
#292=EDGE_CURVE('',#295,#304,#212,.T.);
#293=EDGE_CURVE('',#305,#298,#213,.T.);
#294=EDGE_CURVE('',#297,#306,#214,.T.);
#295=VERTEX_POINT('',#478);
#296=VERTEX_POINT('',#479);
#297=VERTEX_POINT('',#480);
#298=VERTEX_POINT('',#481);
#299=VERTEX_POINT('',#482);
#300=VERTEX_POINT('',#483);
#301=VERTEX_POINT('',#484);
#302=VERTEX_POINT('',#485);
#303=VERTEX_POINT('',#486);
#304=VERTEX_POINT('',#487);
#305=VERTEX_POINT('',#488);
#306=VERTEX_POINT('',#489);
#307=VERTEX_POINT('',#490);
#308=VERTEX_POINT('',#491);
#309=VERTEX_POINT('',#492);
#310=VERTEX_POINT('',#493);
#311=VERTEX_POINT('',#494);
#312=VERTEX_POINT('',#495);
#313=VERTEX_POINT('',#496);
#314=VERTEX_POINT('',#497);
#315=VERTEX_POINT('',#498);
#316=VERTEX_POINT('',#499);
#317=VERTEX_POINT('',#500);
#318=VERTEX_POINT('',#501);
#319=VERTEX_POINT('',#502);
#320=VERTEX_POINT('',#503);
#321=VERTEX_POINT('',#504);
#322=VERTEX_POINT('',#505);
#323=PRODUCT_CATEGORY_RELATIONSHIP('','',#327,#325);
#324=PRODUCT_CATEGORY_RELATIONSHIP('','',#328,#326);
#325=PRODUCT_RELATED_PRODUCT_CATEGORY('detail','',(#340));
#326=PRODUCT_RELATED_PRODUCT_CATEGORY('detail','',(#341));
#327=PRODUCT_CATEGORY('part','');
#328=PRODUCT_CATEGORY('part','');
#329=SHAPE_DEFINITION_REPRESENTATION(#331,#348);
#330=SHAPE_DEFINITION_REPRESENTATION(#332,#349);
#331=PRODUCT_DEFINITION_SHAPE('','Shape',#334);
#332=PRODUCT_DEFINITION_SHAPE('','Shape',#335);
#333=PRODUCT_DEFINITION_SHAPE('','',#12);
#334=PRODUCT_DEFINITION('','',#336,#338);
#335=PRODUCT_DEFINITION('','',#337,#339);
#336=PRODUCT_DEFINITION_FORMATION('','',#340);
#337=PRODUCT_DEFINITION_FORMATION('','',#341);
#338=PRODUCT_DEFINITION_CONTEXT('part definition',#346,'');
#339=PRODUCT_DEFINITION_CONTEXT('part definition',#347,'');
#340=PRODUCT('bhlfp','bhlfp','not specified',(#342));
#341=PRODUCT('050601 - STSB','050601 - STSB','not specified',(#343));
#342=PRODUCT_CONTEXT('',#346,'mechanical');
#343=PRODUCT_CONTEXT('',#347,'mechanical');
#344=APPLICATION_PROTOCOL_DEFINITION('Draft International Standard',
'automotive_design',1997,#346);
#345=APPLICATION_PROTOCOL_DEFINITION('Draft International Standard',
'automotive_design',1997,#347);
#346=APPLICATION_CONTEXT('automotive design');
#347=APPLICATION_CONTEXT('automotive design');
#348=SHAPE_REPRESENTATION('bhlfp',(#350,#383),#600);
#349=SHAPE_REPRESENTATION('050601 - STSB',(#351),#601);
#350=AXIS2_PLACEMENT_3D('',#476,#384,#385);
#351=AXIS2_PLACEMENT_3D('',#477,#386,#387);
#352=AXIS2_PLACEMENT_3D('',#506,#388,#389);
#353=AXIS2_PLACEMENT_3D('',#510,#393,#394);
#354=AXIS2_PLACEMENT_3D('',#511,#395,#396);
#355=AXIS2_PLACEMENT_3D('',#514,#399,#400);
#356=AXIS2_PLACEMENT_3D('',#516,#402,#403);
#357=AXIS2_PLACEMENT_3D('',#517,#404,#405);
#358=AXIS2_PLACEMENT_3D('',#522,#410,#411);
#359=AXIS2_PLACEMENT_3D('',#523,#412,#413);
#360=AXIS2_PLACEMENT_3D('',#524,#414,#415);
#361=AXIS2_PLACEMENT_3D('',#525,#416,#417);
#362=AXIS2_PLACEMENT_3D('',#532,#424,#425);
#363=AXIS2_PLACEMENT_3D('',#533,#426,#427);
#364=AXIS2_PLACEMENT_3D('',#534,#428,#429);
#365=AXIS2_PLACEMENT_3D('',#535,#430,#431);
#366=AXIS2_PLACEMENT_3D('',#582,#440,#441);
#367=AXIS2_PLACEMENT_3D('',#583,#442,#443);
#368=AXIS2_PLACEMENT_3D('',#584,#444,#445);
#369=AXIS2_PLACEMENT_3D('',#585,#446,#447);
#370=AXIS2_PLACEMENT_3D('',#586,#448,#449);
#371=AXIS2_PLACEMENT_3D('',#587,#450,#451);
#372=AXIS2_PLACEMENT_3D('',#588,#452,#453);
#373=AXIS2_PLACEMENT_3D('',#589,#454,#455);
#374=AXIS2_PLACEMENT_3D('',#590,#456,#457);
#375=AXIS2_PLACEMENT_3D('',#591,#458,#459);
#376=AXIS2_PLACEMENT_3D('',#592,#460,#461);
#377=AXIS2_PLACEMENT_3D('',#593,#462,#463);
#378=AXIS2_PLACEMENT_3D('',#594,#464,#465);
#379=AXIS2_PLACEMENT_3D('',#595,#466,#467);
#380=AXIS2_PLACEMENT_3D('',#596,#468,#469);
#381=AXIS2_PLACEMENT_3D('',#597,#470,#471);
#382=AXIS2_PLACEMENT_3D('',#598,#472,#473);
#383=AXIS2_PLACEMENT_3D('',#599,#474,#475);
#384=DIRECTION('',(0.,0.,1.));
#385=DIRECTION('',(1.,0.,0.));
#386=DIRECTION('',(0.,0.,1.));
#387=DIRECTION('',(1.,0.,0.));
#388=DIRECTION('',(1.,0.,0.));
#389=DIRECTION('',(0.,0.995633267892039,0.0933509285793146));
#390=DIRECTION('',(0.,0.0933509285793296,-0.995633267892037));
#391=DIRECTION('',(0.,1.,0.));
#392=DIRECTION('',(0.,0.0933509285793296,0.995633267892037));
#393=DIRECTION('',(1.,0.,0.));
#394=DIRECTION('',(0.,1.,0.));
#395=DIRECTION('',(1.,0.,0.));
#396=DIRECTION('',(0.,0.,1.));
#397=DIRECTION('',(0.,1.,0.));
#398=DIRECTION('',(0.,-0.0933509285793296,0.995633267892037));
#399=DIRECTION('',(-1.,0.,0.));
#400=DIRECTION('',(0.,-0.995633267892039,0.0933509285793146));
#401=DIRECTION('',(0.,-0.0933509285793296,-0.995633267892037));
#402=DIRECTION('',(-1.,0.,0.));
#403=DIRECTION('',(0.,1.,0.));
#404=DIRECTION('',(-1.,0.,0.));
#405=DIRECTION('',(0.,0.,1.));
#406=DIRECTION('',(0.,1.,0.));
#407=DIRECTION('',(-1.,0.,0.));
#408=DIRECTION('',(0.,1.,0.));
#409=DIRECTION('',(-1.,0.,0.));
#410=DIRECTION('',(0.,0.,-1.));
#411=DIRECTION('',(1.,0.,0.));
#412=DIRECTION('',(0.,0.,-1.));
#413=DIRECTION('',(0.,-1.,0.));
#414=DIRECTION('',(0.,0.,-1.));
#415=DIRECTION('',(1.,0.,0.));
#416=DIRECTION('',(0.,0.,-1.));
#417=DIRECTION('',(0.,-1.,0.));
#418=DIRECTION('',(0.,-0.0933509285793327,0.995633267892037));
#419=DIRECTION('',(0.,1.,0.));
#420=DIRECTION('',(0.,-0.0933509285793327,-0.995633267892037));
#421=DIRECTION('',(1.,0.,0.));
#422=DIRECTION('',(0.,1.,0.));
#423=DIRECTION('',(-1.,0.,0.));
#424=DIRECTION('',(0.,0.,1.));
#425=DIRECTION('',(0.,-1.,0.));
#426=DIRECTION('',(0.,0.,1.));
#427=DIRECTION('',(1.,0.,0.));
#428=DIRECTION('',(0.,0.,1.));
#429=DIRECTION('',(0.,-1.,0.));
#430=DIRECTION('',(0.,0.,1.));
#431=DIRECTION('',(1.,0.,0.));
#432=DIRECTION('',(1.,0.,0.));
#433=DIRECTION('',(1.,0.,0.));
#434=DIRECTION('',(-1.,0.,0.));
#435=DIRECTION('',(1.,0.,0.));
#436=DIRECTION('',(0.,0.,1.));
#437=DIRECTION('',(0.,0.,-1.));
#438=DIRECTION('',(0.,0.,1.));
#439=DIRECTION('',(0.,0.,-1.));
#440=DIRECTION('',(0.,0.,-1.));
#441=DIRECTION('',(0.996194698091746,0.0871557427476576,0.));
#442=DIRECTION('',(0.,0.,-1.));
#443=DIRECTION('',(0.996194698091746,0.0871557427476576,0.));
#444=DIRECTION('',(1.,0.,0.));
#445=DIRECTION('',(0.,0.996194698091746,-0.0871557427476573));
#446=DIRECTION('',(0.,0.,-1.));
#447=DIRECTION('',(0.0871557427476576,-0.996194698091746,0.));
#448=DIRECTION('',(0.,0.,-1.));
#449=DIRECTION('',(0.0871557427476576,-0.996194698091746,0.));
#450=DIRECTION('',(0.,0.995633267892037,0.0933509285793293));
#451=DIRECTION('',(0.,0.0933509285793294,-0.995633267892037));
#452=DIRECTION('',(0.,-0.995633267892037,0.0933509285793293));
#453=DIRECTION('',(0.,0.0933509285793294,0.995633267892037));
#454=DIRECTION('',(1.,0.,0.));
#455=DIRECTION('',(0.,0.999980652234321,0.00622054314524608));
#456=DIRECTION('',(1.,0.,0.));
#457=DIRECTION('',(0.,0.0871557427476577,0.996194698091746));
#458=DIRECTION('',(0.,1.,0.));
#459=DIRECTION('',(0.996194698091745,0.,0.0871557427476583));
#460=DIRECTION('',(0.,-1.,0.));
#461=DIRECTION('',(-0.0871557427476581,0.,-0.996194698091746));
#462=DIRECTION('',(0.,0.,1.));
#463=DIRECTION('',(1.,0.,0.));
#464=DIRECTION('',(-1.,0.,0.));
#465=DIRECTION('',(0.,0.,1.));
#466=DIRECTION('',(0.,0.,-1.));
#467=DIRECTION('',(-1.,0.,0.));
#468=DIRECTION('',(-1.,0.,0.));
#469=DIRECTION('',(0.,0.,1.));
#470=DIRECTION('',(1.,0.,0.));
#471=DIRECTION('',(0.,0.,-1.));
#472=DIRECTION('',(0.,0.,1.));
#473=DIRECTION('',(1.,0.,0.));
#474=DIRECTION('',(0.,0.,1.));
#475=DIRECTION('',(1.,0.,0.));
#476=CARTESIAN_POINT('',(0.,0.,0.));
#477=CARTESIAN_POINT('',(0.,0.,0.));
#478=CARTESIAN_POINT('',(-15.5,-18.5,3.));
#479=CARTESIAN_POINT('',(-19.,-22.,3.));
#480=CARTESIAN_POINT('',(-15.5,18.5,3.));
#481=CARTESIAN_POINT('',(-19.,15.,3.));
#482=CARTESIAN_POINT('',(-5.99999999999999,-29.718718935205,2.99999999999999));
#483=CARTESIAN_POINT('',(-5.99999999999999,29.718718935205,2.99999999999999));
#484=CARTESIAN_POINT('',(-35.,-29.718718935205,2.99999999999999));
#485=CARTESIAN_POINT('',(-35.,29.718718935205,2.99999999999999));
#486=CARTESIAN_POINT('',(-19.,-22.,0.));
#487=CARTESIAN_POINT('',(-15.5,-18.5,0.));
#488=CARTESIAN_POINT('',(-19.,15.,0.));
#489=CARTESIAN_POINT('',(-15.5,18.5,0.));
#490=CARTESIAN_POINT('',(-5.99999999999999,30.,0.));
#491=CARTESIAN_POINT('',(-5.99999999999999,-30.,0.));
#492=CARTESIAN_POINT('',(-35.,30.,0.));
#493=CARTESIAN_POINT('',(-35.,-30.,0.));
#494=CARTESIAN_POINT('',(-3.,0.,143.));
#495=CARTESIAN_POINT('',(-3.,10.5,132.5));
#496=CARTESIAN_POINT('',(-3.,-17.4235821881106,134.133641250138));
#497=CARTESIAN_POINT('',(-3.,17.4235821881106,134.133641250138));
#498=CARTESIAN_POINT('',(-2.99999999999999,29.43743787041,5.99999999999999));
#499=CARTESIAN_POINT('',(-2.99999999999999,-29.43743787041,5.99999999999999));
#500=CARTESIAN_POINT('',(0.,0.,143.));
#501=CARTESIAN_POINT('',(0.,10.5,132.5));
#502=CARTESIAN_POINT('',(0.,-29.43743787041,6.00000000000001));
#503=CARTESIAN_POINT('',(0.,29.43743787041,6.00000000000001));
#504=CARTESIAN_POINT('',(0.,-17.4235821881106,134.133641250138));
#505=CARTESIAN_POINT('',(0.,17.4235821881106,134.133641250138));
#506=CARTESIAN_POINT('',(0.,0.,132.5));
#507=CARTESIAN_POINT('',(0.,17.4235821881106,134.133641250138));
#508=CARTESIAN_POINT('',(0.,-29.43743787041,6.00000000000001));
#509=CARTESIAN_POINT('',(0.,-29.43743787041,6.00000000000001));
#510=CARTESIAN_POINT('',(0.,0.,132.5));
#511=CARTESIAN_POINT('',(0.,0.,132.5));
#512=CARTESIAN_POINT('',(-2.99999999999999,-29.43743787041,5.99999999999999));
#513=CARTESIAN_POINT('',(-2.99999999999999,29.43743787041,5.99999999999999));
#514=CARTESIAN_POINT('',(-3.,0.,132.5));
#515=CARTESIAN_POINT('',(-3.,-17.4235821881106,134.133641250138));
#516=CARTESIAN_POINT('',(-3.,0.,132.5));
#517=CARTESIAN_POINT('',(-3.,0.,132.5));
#518=CARTESIAN_POINT('',(-35.,-30.,0.));
#519=CARTESIAN_POINT('',(-5.99999999999999,-30.,0.));
#520=CARTESIAN_POINT('',(-5.99999999999999,-30.,0.));
#521=CARTESIAN_POINT('',(-5.99999999999999,30.,0.));
#522=CARTESIAN_POINT('',(-19.,18.5,0.));
#523=CARTESIAN_POINT('',(-19.,18.5,0.));
#524=CARTESIAN_POINT('',(-19.,-18.5,0.));
#525=CARTESIAN_POINT('',(-19.,-18.5,0.));
#526=CARTESIAN_POINT('',(-35.,30.,0.));
#527=CARTESIAN_POINT('',(-35.,-29.718718935205,2.99999999999999));
#528=CARTESIAN_POINT('',(-35.,-29.718718935205,2.99999999999999));
#529=CARTESIAN_POINT('',(-35.,29.718718935205,2.99999999999999));
#530=CARTESIAN_POINT('',(-5.99999999999999,-29.718718935205,2.99999999999999));
#531=CARTESIAN_POINT('',(-5.99999999999999,-29.718718935205,2.99999999999999));
#532=CARTESIAN_POINT('',(-19.,18.5,3.));
#533=CARTESIAN_POINT('',(-19.,18.5,3.));
#534=CARTESIAN_POINT('',(-19.,-18.5,3.));
#535=CARTESIAN_POINT('',(-19.,-18.5,3.));
#536=CARTESIAN_POINT('',(-5.99999999999999,29.718718935205,2.99999999999999));
#537=CARTESIAN_POINT('',(-5.69396983382436,29.7188764774053,2.99911359173825));
#538=CARTESIAN_POINT('',(-5.17080203410052,29.7111341620617,3.08075661077262));
#539=CARTESIAN_POINT('',(-4.44543690245086,29.6811714487085,3.40033695376565));
#540=CARTESIAN_POINT('',(-3.85182454554773,29.6384031921174,3.85667972346663));
#541=CARTESIAN_POINT('',(-3.39738985352801,29.5826995928642,4.45063167823395));
#542=CARTESIAN_POINT('',(-3.08000805730081,29.5148490458257,5.17431542612492));
#543=CARTESIAN_POINT('',(-2.99916036604287,29.4660253963401,5.69529246554026));
#544=CARTESIAN_POINT('',(-2.99999999999999,29.43743787041,5.99999999999999));
#545=CARTESIAN_POINT('',(-2.99999999999999,-29.4374378704099,5.99999999999999));
#546=CARTESIAN_POINT('',(-2.99916036604288,-29.46602539634,5.69529246554026));
#547=CARTESIAN_POINT('',(-3.08000805730081,-29.5148490458256,5.17431542612492));
#548=CARTESIAN_POINT('',(-3.39738985352799,-29.5826995928641,4.45063167823395));
#549=CARTESIAN_POINT('',(-3.85182454554773,-29.6384031921173,3.85667972346663));
#550=CARTESIAN_POINT('',(-4.44543690245086,-29.6811714487084,3.40033695376566));
#551=CARTESIAN_POINT('',(-5.17080203410051,-29.7111341620616,3.08075661077261));
#552=CARTESIAN_POINT('',(-5.69396983382436,-29.7188764774052,2.99911359173829));
#553=CARTESIAN_POINT('',(-5.99999999999999,-29.7187189352049,2.99999999999999));
#554=CARTESIAN_POINT('',(-5.99999999999999,30.,0.));
#555=CARTESIAN_POINT('',(-5.4760337795703,30.0001374846336,-0.00077715266272211));
#556=CARTESIAN_POINT('',(-4.5790923405006,29.9889101159448,0.118184327291703));
#557=CARTESIAN_POINT('',(-3.30782761886629,29.9446601820598,0.590141267510316));
#558=CARTESIAN_POINT('',(-2.22296330142233,29.8806221411532,1.27307104828604));
#559=CARTESIAN_POINT('',(-1.26477950506538,29.7905841450138,2.23351217951564));
#560=CARTESIAN_POINT('',(-0.585524313128398,29.68892843671,3.31767345662168));
#561=CARTESIAN_POINT('',(-0.11708942726566,29.5700837567714,4.5852527311032));
#562=CARTESIAN_POINT('',(0.000723413026755598,29.4863604951933,5.47833376819999));
#563=CARTESIAN_POINT('',(0.,29.43743787041,6.));
#564=CARTESIAN_POINT('',(0.,-29.4374378704098,6.00000000000001));
#565=CARTESIAN_POINT('',(0.000723413026757284,-29.4863604951931,5.47833376819999));
#566=CARTESIAN_POINT('',(-0.117089427265662,-29.5700837567711,4.58525273110319));
#567=CARTESIAN_POINT('',(-0.585524313128408,-29.6889284367098,3.31767345662167));
#568=CARTESIAN_POINT('',(-1.26477950506539,-29.7905841450136,2.23351217951564));
#569=CARTESIAN_POINT('',(-2.22296330142232,-29.880622141153,1.27307104828603));
#570=CARTESIAN_POINT('',(-3.3078276188663,-29.9446601820596,0.590141267510337));
#571=CARTESIAN_POINT('',(-4.57909234050059,-29.9889101159445,0.118184327291654));
#572=CARTESIAN_POINT('',(-5.4760337795703,-30.0001374846334,-0.000777152662666268));
#573=CARTESIAN_POINT('',(-5.99999999999999,-29.9999999999998,0.));
#574=CARTESIAN_POINT('',(-3.,17.4235821881106,134.133641250138));
#575=CARTESIAN_POINT('',(-3.,-17.4235821881106,134.133641250138));
#576=CARTESIAN_POINT('',(0.,0.,143.));
#577=CARTESIAN_POINT('',(-3.,10.5,132.5));
#578=CARTESIAN_POINT('',(-19.,-22.,0.));
#579=CARTESIAN_POINT('',(-15.5,-18.5,3.));
#580=CARTESIAN_POINT('',(-19.,15.,0.));
#581=CARTESIAN_POINT('',(-15.5,18.5,3.));
#582=CARTESIAN_POINT('',(-19.,18.5,3.15000000000001));
#583=CARTESIAN_POINT('',(-19.,-18.5,3.15000000000001));
#584=CARTESIAN_POINT('',(-3.15000000000001,0.,132.5));
#585=CARTESIAN_POINT('',(-19.,18.5,3.15000000000001));
#586=CARTESIAN_POINT('',(-19.,-18.5,3.15000000000001));
#587=CARTESIAN_POINT('',(6.73609679265374,16.7947612975162,140.840323312645));
#588=CARTESIAN_POINT('',(6.73609679265374,-30.6288208905945,-6.7066820625069));
#589=CARTESIAN_POINT('',(0.149999999999977,0.,132.5));
#590=CARTESIAN_POINT('',(-3.15000000000001,0.,132.5));
#591=CARTESIAN_POINT('',(-5.99999999999999,33.,6.00000000000001));
#592=CARTESIAN_POINT('',(-5.99999999999999,32.6905908287255,5.99999999999999));
#593=CARTESIAN_POINT('',(-37.9718718935205,-32.6905908287255,2.99999999999999));
#594=CARTESIAN_POINT('',(-35.,-33.,-3.));
#595=CARTESIAN_POINT('',(-2.99999999999999,-33.,0.));
#596=CARTESIAN_POINT('',(-2.99999999999999,-36.63743787041,-1.20000000000001));
#597=CARTESIAN_POINT('',(0.,-36.63743787041,157.2));
#598=CARTESIAN_POINT('',(0.,0.,0.));
#599=CARTESIAN_POINT('',(0.,0.,0.));
#600=(
GEOMETRIC_REPRESENTATION_CONTEXT(3)
GLOBAL_UNCERTAINTY_ASSIGNED_CONTEXT((#603))
GLOBAL_UNIT_ASSIGNED_CONTEXT((#612,#609,#606))
REPRESENTATION_CONTEXT('','')
);
#601=(
GEOMETRIC_REPRESENTATION_CONTEXT(3)
GLOBAL_UNCERTAINTY_ASSIGNED_CONTEXT((#604))
GLOBAL_UNIT_ASSIGNED_CONTEXT((#613,#610,#607))
REPRESENTATION_CONTEXT('','')
);
#602=(
GEOMETRIC_REPRESENTATION_CONTEXT(3)
GLOBAL_UNCERTAINTY_ASSIGNED_CONTEXT((#605))
GLOBAL_UNIT_ASSIGNED_CONTEXT((#614,#611,#608))
REPRESENTATION_CONTEXT('','')
);
#603=UNCERTAINTY_MEASURE_WITH_UNIT(LENGTH_MEASURE(0.001),#612,'TOL_CRV',
'CONFUSED CURVE UNCERTAINTY');
#604=UNCERTAINTY_MEASURE_WITH_UNIT(LENGTH_MEASURE(0.001),#613,'TOL_CRV',
'CONFUSED CURVE UNCERTAINTY');
#605=UNCERTAINTY_MEASURE_WITH_UNIT(LENGTH_MEASURE(0.001),#614,'TOL_CRV',
'CONFUSED CURVE UNCERTAINTY');
#606=(
NAMED_UNIT(*)
SI_UNIT($,.STERADIAN.)
SOLID_ANGLE_UNIT()
);
#607=(
NAMED_UNIT(*)
SI_UNIT($,.STERADIAN.)
SOLID_ANGLE_UNIT()
);
#608=(
NAMED_UNIT(*)
SI_UNIT($,.STERADIAN.)
SOLID_ANGLE_UNIT()
);
#609=(
NAMED_UNIT(*)
PLANE_ANGLE_UNIT()
SI_UNIT($,.RADIAN.)
);
#610=(
NAMED_UNIT(*)
PLANE_ANGLE_UNIT()
SI_UNIT($,.RADIAN.)
);
#611=(
NAMED_UNIT(*)
PLANE_ANGLE_UNIT()
SI_UNIT($,.RADIAN.)
);
#612=(
LENGTH_UNIT()
NAMED_UNIT(*)
SI_UNIT(.MILLI.,.METRE.)
);
#613=(
LENGTH_UNIT()
NAMED_UNIT(*)
SI_UNIT(.MILLI.,.METRE.)
);
#614=(
LENGTH_UNIT()
NAMED_UNIT(*)
SI_UNIT(.MILLI.,.METRE.)
);
ENDSEC;
END-ISO-10303-21;
